Another Influence

Disaster Day

Another Influence

tabs

by  EDSOOLIVEIRA

save to print version add songbook text version e-mail correct tuner
chordsukulelecavacokeyboardtabbassdrumsharmonicaflute Guitar Pro
close

there isn't a video lesson for this song

chords

Disaster Day

	  		Intro 
e|-----------------------------------------------------------------------------------------| 
B|-----------------------------------------------------------------------------------------| 
G|-4-4---------7-7---------2-2---------------------4-4---------7-7---------2-2-~-----------| 
D|-4-4--2-4-0--7-7--4-5-0--2-2--2-2-4-5-4-2-4-2-0--4-4--2-4-0--7-7--4-5-0--2-2-~-----------| 
A|-2-2---------5-5---------0-0---------------------2-2---------5-5---------0-0-~-----------| 
E|-----------------------------------------------------------------------------------------| 

e|-----------------------------------------------------------------------------------------| 
B|-----------------------------------------------------------------------------------------| 
G|-4-4---------7-7---------2-2---------------------4-4---------7-7---------2-2-------------| 
D|-4-4--2-4-0--7-7--4-5-0--2-2--2-2-4-5-4-2-4-2-0--4-4--2-4-0--7-7--4-5-0--2-2--4-5-4------| 
A|-2-2---------5-5---------0-0---------------------2-2---------5-5---------0-0-------------| 
E|-----------------------------------------------------------------------------------------| 

e|-------------| 
B|-------------| 
G|-4-4-4-4-----| 
D|-4-4-4-4-----| 
A|-2-2-2-2-----| 
E|-------------| 

Verse 
e|-------------------------------------| 
B|-------------------------------------| 
G|-4-4-4-4---------7-7-7-7-7-7-7-7-----| 
D|-4-4-4-4-7-7-7-7-7-7-7-7-7-7-7-7-----| 
A|-2-2-2-2-7-7-7-7-5-5-5-5-5-5-5-5-----| 
E|---------5-5-5-5---------------------| x2 

PRE Chorus 

e|-------------------------------------------------| 
B|-------------------------------------------------| 
G|-4-x-4-x-4-4-------------7-x-7-x-7-7-7-7-7-7-----| 
D|-4-x-4-x-4-4-7-x-7-x-7-7-7-x-7-x-7-7-7-7-7-7-----| 
A|-2-x-2-x-2-2-7-x-7-x-7-7-5-x-5-x-5-5-5-5-5-5-----| 
E|-------------5-x-5-x-5-5-------------------------|x2 

Chorus 

e|-------------------------------------------------------------------------| 
B|-------------------------------------------------------------------------| 
G|-4-4-4-4--------------------------4-4-4-4-7-7-7-7------------------------| 
D|-4-4-4-4-7-7-7-7-5-5-5-5-5-5-5-5--4-4-4-4-7-7-7-7-7-7-7-7-7-7-7-7--------| 
A|-2-2-2-2-7-7-7-7-5-5-5-5-5-5-5-5--2-2-2-2-5-5-5-5-7-7-7-7-7-7-7-7--------| 
E|---------5-5-5-5-3-3-3-3-3-3-3-3------------------5-5-5-5-5-5-5-5--------|x2 

POST Chorus 

e|-------------------------------------| 
B|-------------------------------------| 
G|-7-7-x-x-x-x-------------------------| 
D|-7-7-x-x-x-x-4-4-x-x-x-x--2-~--------| 
A|-5-7-x-x-x-x-4-4-x-x-x-x--2-~--------| 
E|-------------2-2-x-x-x-x--0-~--------|x2 

VERSE 

e|-------------------------------------| 
B|-------------------------------------| 
G|-4-4-4-4---------7-7-7-7-7-7-7-7-----| 
D|-4-4-4-4-7-7-7-7-7-7-7-7-7-7-7-7-----| 
A|-2-2-2-2-7-7-7-7-5-5-5-5-5-5-5-5-----| 
E|---------5-5-5-5---------------------| x2 

PRE Chorus 

e|-------------------------------------------------| 
B|-------------------------------------------------| 
G|-4-x-4-x-4-4-------------7-x-7-x-7-7-7-7-7-7-----| 
D|-4-x-4-x-4-4-7-x-7-x-7-7-7-x-7-x-7-7-7-7-7-7-----| 
A|-2-x-2-x-2-2-7-x-7-x-7-7-5-x-5-x-5-5-5-5-5-5-----| 
E|-------------5-x-5-x-5-5-------------------------| x2 

Chorus 

e|-------------------------------------------------------------------------| 
B|-------------------------------------------------------------------------| 
G|-4-4-4-4--------------------------4-4-4-4-7-7-7-7------------------------| 
D|-4-4-4-4-7-7-7-7-5-5-5-5-5-5-5-5--4-4-4-4-7-7-7-7-7-7-7-7-7-7-7-7--------| 
A|-2-2-2-2-7-7-7-7-5-5-5-5-5-5-5-5--2-2-2-2-5-5-5-5-7-7-7-7-7-7-7-7--------| 
E|---------5-5-5-5-3-3-3-3-3-3-3-3------------------5-5-5-5-5-5-5-5--------| x2 

SOLO (RHYTHM) 

e|------------------------------------------------| 
B|------------------------------------------------| 
G|-4-4---7-7---2-2----4-4---7-7---2-2-~-----------| 
D|-4-4---7-7---2-2----4-4---7-7---2-2-~-----------| 
A|-2-2---5-5---0-0----2-2---5-5---0-0-~-----------| 
E|------------------------------------------------| x2 

BRIDGE 

e|-------------------------------------------------------------------------| 
B|-------------------------------------------------------------------------| 
G|-4-4-4-4--------------------------4-4-4-4-7-7-7-7------------------------| 
D|-4-4-4-4-7-7-7-7-5-5-5-5-5-5-5-5--4-4-4-4-7-7-7-7-7-7-7-7-7-7-7-7--------| 
A|-2-2-2-2-7-7-7-7-5-5-5-5-5-5-5-5--2-2-2-2-5-5-5-5-7-7-7-7-7-7-7-7--------| 
E|---------5-5-5-5-3-3-3-3-3-3-3-3------------------5-5-5-5-5-5-5-5--------|x3 

Chorus 

e|-------------------------------------------------------------------------| 
B|-------------------------------------------------------------------------| 
G|-4-4-4-4--------------------------4-4-4-4-7-7-7-7------------------------| 
D|-4-4-4-4-7-7-7-7-5-5-5-5-5-5-5-5--4-4-4-4-7-7-7-7-7-7-7-7-7-7-7-7--------| 
A|-2-2-2-2-7-7-7-7-5-5-5-5-5-5-5-5--2-2-2-2-5-5-5-5-7-7-7-7-7-7-7-7--------| 
E|---------5-5-5-5-3-3-3-3-3-3-3-3------------------5-5-5-5-5-5-5-5--------|x4 

ENDING 

e|-------------| 
B|-------------| 
G|-4-4-4-4-----| 
D|-4-4-4-4-----| 
A|-2-2-2-2-----| 
E|-------------| 

************************************ 

| ~  Vibrato 
| x  Dead note 

************************************ 
		  

See also:

tabs Deep Purple - Sail Away tabs Deep Purple - Pictures of Home tabs Deep Purple - Lazy tabs Deep Purple - Highway Star tabs Deep Purple - Deep Purple - Smoke On The Water tabs Deep Purple - Smoke On The Water (Intro + solo 01)
e-chords

Other versions:

tabs Another Influence - Disaster Day
auto scroll beats size up size down change color hide chords drawings
tab show chords e-chords YouTube Clip e-chords hide all tabs e-chords go to top tab

share