Another Day Dawns

home > Another Day Dawns

Save Me Tab

Another Day Dawns

Difficulty: nolevelnolevel

by marcnagel

tuner correct add songbook print version text version save to e-mail
chordsukulelecavacokeyboardtabbassdrumsharmonicsflute Guitar Pro
chords

Save Me

  		Intro 

D#|-------------------------------------| 
A#|-------------------------------------| 
F#|-------------------------------------| 
C#|-------------------------------------| x4 
G#|---7-(7)----2-(2)----3-(3)----5-(5)--| 
C#|-vs7-(7)--vs2-(2)--vs3-(3)--vs5-(5)--| 
There is a pick slide-down on the fourth time 

Verse 

D#|-----------------|---------------|---------------|------------------| 
A#|-----------------|---------------|---------------|------------------| 
F#|-----------------|---------------|---------------|------------------| 
C#|-7-7-x-x-9b10br9-|-2-2-x-x-7-9-7-|-3-3-x-x-5-7-5-|-5-5-x-x-2b3br2---| x2 
G#|-7-7-x-x---------|-2-2-x-x-------|-3-3-x-x-------|-5-5-x-x--------3-| 
C#|-7-7-x-x---------|-2-2-x-x-------|-3-3-x-x-------|-5-5-x-x----------| 

D#|-----------------|-----------------|-----------------|-----------------| 
A#|-----------------|-----------------|-----------------|-----------------| 
F#|-----------------|-----------------|-----------------|-----------------| 
C#|-2-2-------------|-2-2-------------|-3-3-------------|-5-5-------------| x2 
G#|-0-0-2-3-5-3-2-0-|-2-2-2-3-5-3-2-0-|-3-3-2-3-5-3-2-0-|-5-5-2-3-5-3-2-0-| 
C#|-----------------|-2-2-------------|-3-3-------------|-5-5-------------| 
        * * * * * *       * * * * * *       * * * * * *       * * * * * * 

Pre-Chorus 

D#|---------------------------------| 
A#|---------------------------------| 
F#|---------------------------------| 
C#|-5-5-5-5-5-5-5-5-7-7-7-7-7-7-7-7-| 
G#|-3-3-3-3-3-3-3-3-5-5-5-5-5-5-5-5-| 
C#|-3-3-3-3-3-3-3-3-5-5-5-5-5-5-5-5-| 

Chorus 

D#|---------------0-(0)--| 
A#|---------------5-(5)--| 
F#|---------------2-(2)--| 
C#|-2-(2)---------0-(0)--| x2 
G#|-0-(0)---0-(0)-0-(0)--| 
C#|---------0-(0)-0-(0)--| 

D#|---------------------------------| 
A#|---------------------------------| 
F#|---------------------------------| 
C#|-5-5-5-5-5-5-5-5-7-7-7-7-7-7-7-7-| 
G#|-3-3-3-3-3-3-3-3-5-5-5-5-5-5-5-5-| 
C#|-3-3-3-3-3-3-3-3-5-5-5-5-5-5-5-5-| 

verse 2 

D#|-----------------|---------------|---------------|------------------| 
A#|-----------------|---------------|---------------|------------------| 
F#|-----------------|---------------|---------------|------------------| 
C#|-7-7-x-x-9b10br9-|-2-2-x-x-7-9-7-|-3-3-x-x-5-7-5-|-5-5-x-x-2b3br2---| x2 
G#|-7-7-x-x---------|-2-2-x-x-------|-3-3-x-x-------|-5-5-x-x--------3-| 
C#|-7-7-x-x---------|-2-2-x-x-------|-3-3-x-x-------|-5-5-x-x----------| 

D#|-----------------|-----------------|-----------------|-----------------| 
A#|-----------------|-----------------|-----------------|-----------------| 
F#|-----------------|-----------------|-----------------|-----------------| 
C#|-2-2-------------|-2-2-------------|-3-3-------------|-5-5-------------| x2 
G#|-0-0-2-3-5-3-2-0-|-2-2-2-3-5-3-2-0-|-3-3-2-3-5-3-2-0-|-5-5-2-3-5-3-2-0-| 
C#|-----------------|-2-2-------------|-3-3-------------|-5-5-------------| 
        * * * * * *       * * * * * *       * * * * * *       * * * * * * 
D#|-----------------|-----------------|-----------------|-----------------| 
A#|-----------------|-----------------|-----------------|-----------------| 
F#|-----------------|-----------------|-----------------|-----------------| 
C#|-2-2-------------|-2-2-------------|-3-3-------------|-5-5-------------| x2 
G#|-0-0-2-3-5-3-2-0-|-2-2-2-3-5-3-2-0-|-3-3-2-3-5-3-2-0-|-5-5-2-3-5-3-2-0-| 
C#|-----------------|-2-2-------------|-3-3-------------|-5-5-------------| 
        
Pre-Chorus 2 

D#|---------------------------------| 
A#|---------------------------------| 
F#|---------------------------------| 
C#|-5-5-5-5-5-5-5-5-7-7-7-7-7-7-7-7-| 
G#|-3-3-3-3-3-3-3-3-5-5-5-5-5-5-5-5-| 
C#|-3-3-3-3-3-3-3-3-5-5-5-5-5-5-5-5-| 

Chorus 2 

D#|---------------0-(0)--| 
A#|---------------5-(5)--| 
F#|---------------2-(2)--| 
C#|-2-(2)---------0-(0)--| x2 
G#|-0-(0)---0-(0)-0-(0)--| 
C#|---------0-(0)-0-(0)--| 

D#|---------------------------------| 
A#|---------------------------------| 
F#|---------------------------------| 
C#|-5-5-5-5-5-5-5-5-7-7-7-7-7-7-7-7-| 
G#|-3-3-3-3-3-3-3-3-5-5-5-5-5-5-5-5-| 
C#|-3-3-3-3-3-3-3-3-5-5-5-5-5-5-5-5-| 

Rhythm under solo 

D#|-----------------|-----------------|-----------------|-----------------| 
A#|-----------------|-----------------|-----------------|-----------------| 
F#|-----------------|-----------------|-----------------|-----------------|  
C#|-7-7-7-7-7-7-7-7-|-2-2-2-2-2-2-2-2-|-3-3-3-3-3-3-3-3-|-5-5-5-5-5-5-5-5-| x4 
G#|-7-7-7-7-7-7-7-7-|-2-2-2-2-2-2-2-2-|-3-3-3-3-3-3-3-3-|-5-5-5-5-5-5-5-5-| 
C#|-7-7-7-7-7-7-7-7-|-2-2-2-2-2-2-2-2-|-3-3-3-3-3-3-3-3-|-5-5-5-5-5-5-5-5-| 

Pre-Chorus 3 

D#|---------------------| 
A#|---------------------| 
F#|---------------------| 
C#|---------------------| x4 
G#|---------------------| 
C#|-vs3-(3)---vs5-(5)---| 

D#|---------------------------------| 
A#|---------------------------------| 
F#|---------------------------------| 
C#|-3-3-3-3-3-3-3-3-5-5-5-5-5-5-5-5-| 
G#|-3-3-3-3-3-3-3-3-5-5-5-5-5-5-5-5-| 
C#|-3-3-3-3-3-3-3-3-5-5-5-5-5-5-5-5-| 
    * * * * * * * * * * * * * * 

Chorus 3 

D#|---------------0-(0)--| 
A#|---------------5-(5)--| 
F#|---------------2-(2)--| 
C#|-2-(2)---------0-(0)--| x4 
G#|-0-(0)---0-(0)-0-(0)--| 
C#|---------0-(0)-0-(0)--| 

D#|---------------------------------| 
A#|---------------------------------| 
F#|---------------------------------| 
C#|-5-5-5-5-5-5-5-5-7-7-7-7-7-7-7-7-| 
G#|-3-3-3-3-3-3-3-3-5-5-5-5-5-5-5-5-| 
C#|-3-3-3-3-3-3-3-3-5-5-5-5-5-5-5-5-| 

Rhythm played under the 2nd solo 

D#|-----------------|---------------|---------------|------------------| 
A#|-----------------|---------------|---------------|------------------| 
F#|-----------------|---------------|---------------|------------------| 
C#|-7-7-x-x-9b10br9-|-2-2-x-x-7-9-7-|-3-3-x-x-5-7-5-|-5-5-x-x-2b3br2---| x4 
G#|-7-7-x-x---------|-2-2-x-x-------|-3-3-x-x-------|-5-5-x-x--------3-| 
C#|-7-7-x-x---------|-2-2-x-x-------|-3-3-x-x-------|-5-5-x-x----------| 

Outro 

D#|-------------------------------------| 
A#|-------------------------------------| 
F#|-------------------------------------| 
C#|-------------------------------------| x2 
G#|-------------------------------------| 
C#|-vs7-(7)--vs2-(2)--vs3-(3)--vs5-(5)--| 

************************************ 

| x   Dead note 
| vs  Volume Swell 
| b   Bend 
| br  Bend Release 
| ~   Vibrato 
| *  Palm mute 

************************************ 
	  

Search Paypal
auto scroll beats size up size down change color hide chords drawings
tab show chords e-chords YouTube Clip e-chords hide all tabs e-chords go to top tab