Another Day Dawns

home > Another Day Dawns

Rage Tab

Another Day Dawns

Difficulty: nolevelnolevel

by deivcavalcanti

tuner correct add songbook print version text version save to e-mail
chordsukulelecavacokeyboardtabbassdrumsharmonicsflute Guitar Pro
chords

Rage

Key:  D# More
Rage Key A#A#
Rage Key BB
Rage Key CC
Rage Key C#C#(one step down)
Rage Key DD(half step down)
Rage Key D#D#(original key)
Rage Key EE(half step up)
Rage Key FF(one step up)
Rage Key F#F#
Rage Key GG
Rage Key G#G#
Rage Key AA
  		
Intro 

D#|------------------------------|-------------------------|-------------------------|-----------------------| 
A#|------------------------------|-------------------------|-------------------------|-----------------------| 
F#|------------------------------|-------------------------|-------------------------|-----------------------| 
C#|------------------------------|-------------------------|-------------------------|-----------------------| 
G#|-ps/--------------------------|-------------------------|-------------------------|-----------------------| 
C#|------0-0-0-0-0-0-0-0-0-0-0-0-|-3-3-3-3-3-3-3-3-3-3-3-3-|-8-8-8-8-8-8-8-8-8-8-8-8-|-5-5-5-5-5-5-5-5-5-5-5-| 
    
D#|------|               x2 
A#|------| 
F#|------|   
C#|------| 
G#|------| 
C#|-7-3-3-| 


Verse 

D#|---------0-|---------0-|-------------------| 
A#|---------3-|---------3-|-------------------| 
F#|---------2-|---------2-|-------------------| 
C#|-0-(0)-0-0-|-0-(0)-0-0-|-8-8-8-8-5-5-5-7-3-|  x2 
G#|-0-(0)-0-0-|-0-(0)-0-0-|-8-8-8-8-5-5-5-7-3-| 
C#|-0-(0)-0-0-|-0-(0)-0-0-|-8-8-8-8-5-5-5-7-3-| 
          *           * 
D#|---------0-|---------0-|-----------------0-|---------0-----| 
A#|---------3-|---------3-|-----------------3-|---------3-----| 
F#|---------2-|---------2-|-----------------2-|---------2-----| 
C#|---------0-|---------0-|-----------------0-|---------0-----|   
G#|-0-0-0-0-0-|-0-0-0-0-0-|-0-0-----0-0-0-0-0-|-0-0-0-0-0-3---| 
C#|-0-0-0-0-0-|-0-0-0-0-0-|-0-0-3h5-0-0-0-0-0-|-0-0-0-0-0---3-| 
    * * * *     * * * *     * *     * * * *     * * * * 
D#|---------0-|---------0-|-----------------------------0-| 
A#|---------3-|---------3-|-----------------------------3-| 
F#|---------2-|---------2-|-----------------------------2-| 
C#|---------0-|---------0-|-----8-8-8-8-8-8-5-5-5-5-5-0-0-| 
G#|-0-0-0-0-0-|-0-0-0-0-0-|-----8-8-8-8-8-8-5-5-5-5-5-0-0-| 
C#|-0-0-0-0-0-|-0-0-0-0-0-|-3h5-8-8-8-8-8-8-5-5-5-5-5-0-0-| 
    * * * *     * * * *         * * * *     * * * *   * 
D#|---------0-|---------0-|-----------------0-|---------0-----| 
A#|---------3-|---------3-|-----------------3-|---------3-----| 
F#|---------2-|---------2-|-----------------2-|---------2-----| 
C#|---------0-|---------0-|-----------------0-|---------0-----|   
G#|-0-0-0-0-0-|-0-0-0-0-0-|-0-0-----0-0-0-0-0-|-0-0-0-0-0-3---| 
C#|-0-0-0-0-0-|-0-0-0-0-0-|-0-0-3h5-0-0-0-0-0-|-0-0-0-0-0---3-| 
    * * * *     * * * *     * *     * * * *     * * * * 
D#|---------0-|---------0-|-----------------------------0-| 
A#|---------3-|---------3-|-----------------------------3-| 
F#|---------2-|---------2-|-----------------------------2-| 
C#|---------0-|---------0-|-----8-8-8-8-8-8-5-5-5-5-5-0-0-| 
G#|-0-0-0-0-0-|-0-0-0-0-0-|-----8-8-8-8-8-8-5-5-5-5-5-0-0-| 
C#|-0-0-0-0-0-|-0-0-0-0-0-|-3h5-8-8-8-8-8-8-5-5-5-5-5-0-0-| 
    * * * *     * * * *         * * * *     * * * *   * 

Pre-Chorus 

D#|---------------------------------| 
A#|---------------------------------| 
F#|---------------------------------| 
C#|-8-8-8-8-8-8-8-8-5-5-5-5-5-5-5-5-| 
G#|-6-6-6-6-6-6-6-6-3-3-3-3-3-3-3-3-| 
C#|-6-6-6-6-6-6-6-6-3-3-3-3-3-3-3-3-|   

Chorus 

D#|-----------|-----------|---------------------| 
A#|-----------|-----------|---------------------| 
F#|-----------|-----------|---------------------| 
C#|-0-(0)-----|-0-(0)-----|-8-8-8-8-5-5-5-5-7-3-|  x4 
G#|-0-(0)-0-0-|-0-(0)-0-0-|-8-8-8-8-5-5-5-5-7-3-| 
C#|-0-(0)-0-0-|-0-(0)-0-0-|-8-8-8-8-5-5-5-5-7-3-| 
          * *         * *  
verse 2 

D#|---------0-|---------0-|-----------------0-|---------0-----| 
A#|---------3-|---------3-|-----------------3-|---------3-----| 
F#|---------2-|---------2-|-----------------2-|---------2-----| 
C#|---------0-|---------0-|-----------------0-|---------0-----|   
G#|-0-0-0-0-0-|-0-0-0-0-0-|-0-0-----0-0-0-0-0-|-0-0-0-0-0-3---| 
C#|-0-0-0-0-0-|-0-0-0-0-0-|-0-0-3h5-0-0-0-0-0-|-0-0-0-0-0---3-| 
    * * * *     * * * *     * *     * * * *     * * * * 
D#|---------0-|---------0-|-----------------------------0-| 
A#|---------3-|---------3-|-----------------------------3-| 
F#|---------2-|---------2-|-----------------------------2-| 
C#|---------0-|---------0-|-----8-8-8-8-8-8-5-5-5-5-5-0-0-| 
G#|-0-0-0-0-0-|-0-0-0-0-0-|-----8-8-8-8-8-8-5-5-5-5-5-0-0-| 
C#|-0-0-0-0-0-|-0-0-0-0-0-|-3h5-8-8-8-8-8-8-5-5-5-5-5-0-0-| 
    * * * *     * * * *         * * * *     * * * *   * 
D#|---------0-|---------0-|-----------------0-|---------0-----| 
A#|---------3-|---------3-|-----------------3-|---------3-----| 
F#|---------2-|---------2-|-----------------2-|---------2-----| 
C#|---------0-|---------0-|-----------------0-|---------0-----|   
G#|-0-0-0-0-0-|-0-0-0-0-0-|-0-0-----0-0-0-0-0-|-0-0-0-0-0-3---| 
C#|-0-0-0-0-0-|-0-0-0-0-0-|-0-0-3h5-0-0-0-0-0-|-0-0-0-0-0---3-| 
    * * * *     * * * *     * *     * * * *     * * * * 
D#|---------0-|---------0-|-----------------------------0-| 
A#|---------3-|---------3-|-----------------------------3-| 
F#|---------2-|---------2-|-----------------------------2-| 
C#|---------0-|---------0-|-----8-8-8-8-8-8-5-5-5-5-5-0-0-| 
G#|-0-0-0-0-0-|-0-0-0-0-0-|-----8-8-8-8-8-8-5-5-5-5-5-0-0-| 
C#|-0-0-0-0-0-|-0-0-0-0-0-|-3h5-8-8-8-8-8-8-5-5-5-5-5-0-0-| 
    * * * *     * * * *         * * * *     * * * *   * 

Pre-Chorus 2 

D#|---------------------------------| 
A#|---------------------------------| 
F#|---------------------------------| 
C#|-8-8-8-8-8-8-8-8-5-5-5-5-5-5-5-5-| 
G#|-6-6-6-6-6-6-6-6-3-3-3-3-3-3-3-3-| 
C#|-6-6-6-6-6-6-6-6-3-3-3-3-3-3-3-3-| 

Chorus 2 

D#|-----------|-----------|---------------------| 
A#|-----------|-----------|---------------------| 
F#|-----------|-----------|---------------------| 
C#|-0-(0)-----|-0-(0)-----|-8-8-8-8-5-5-5-5-7-3-|  x2 
G#|-0-(0)-0-0-|-0-(0)-0-0-|-8-8-8-8-5-5-5-5-7-3-| 
C#|-0-(0)-0-0-|-0-(0)-0-0-|-8-8-8-8-5-5-5-5-7-3-| 
          * *         * *  
D#|-----------|-------------------|---------------------| 
A#|-----------|-------------------|---------------------| 
F#|-----------|-------------------|---------------------| 
C#|-0-(0)-----|-0-(0)-------------|-8-8-8-8-5-5-5-5-7-3-|   
G#|-0-(0)-0-0-|-0-(0)-------5-6-8-|-8-8-8-8-5-5-5-5-7-3-| 
C#|-0-(0)-0-0-|-0-(0)-5-6-8-------|-8-8-8-8-5-5-5-5-7-3-| 
          * *         * * * * * *  
D#|-----------|---------7---|---------------------| 
A#|-----------|--------b10--|---------------------| 
F#|-----------|-------------|---------------------| 
C#|-0-(0)-----|-0-(0)-------|-8-8-8-8-5-5-5-5-7-3-|   
G#|-0-(0)-0-0-|-0-(0)-0-----|-8-8-8-8-5-5-5-5-7-3-| 
C#|-0-(0)-0-0-|-0-(0)-0-----|-8-8-8-8-5-5-5-5-7-3-| 
          * *         * 
Solo 

D#|------------------|----------------|------------------|------------------| 
A#|------------------|----------------|------------------|------------------| 
F#|------------------|----------------|------------------|------------------| 
C#|------------------|-------------10-|------------------|------------------| 
G#|-----8---7--------|-----8---7-8----|-----8---7--------|-----8-7-8-10-8-7-| 
C#|-0-0---0---10-7-8-|-0-0---0--------|-0-0---0---10-7-8-|-0-0--------------| 
    * *   *            * *   *          * *   *            * *                       
D#|------------------|----------------|------------------|--------------------| 
A#|------------------|----------------|------------------|--------------------| 
F#|------------------|----------------|------------------|--------------------| 
C#|------------------|-------------10-|------------------|--------------------| 
G#|-----8---7--------|-----8---7-8----|-----8---7--------|-----8-7-8-10-11-10-| 
C#|-0-0---0---10-7-8-|-0-0---0--------|-0-0---0---10-7-8-|-0-0----------------| 
    * *   *            * *   *          * *   *            * *                  
D#|------------------|----------------|------------------|------------------| 
A#|------------------|----------------|------------------|------------------| 
F#|------------------|----------------|------------------|------------------| 
C#|------------------|-------------10-|------------------|------------------| 
G#|-----8---7--------|-----8---7-8----|-----8---7--------|-----8-7-8-10-8-7-| 
C#|-0-0---0---10-7-8-|-0-0---0--------|-0-0---0---10-7-8-|-0-0--------------| 
    * *   *            * *   *          * *   *            * *      
D#|------------------|----------------|------------------|-----------------| 
A#|------------------|----------------|------------------|-----------------| 
F#|------------------|----------------|------------------|-----------------| 
C#|------------------|-------------10-|------------------|-----8-8-8-9-9-9-| 
G#|-----8---7--------|-----8---7-8----|-----8---7--------|-----6-6-6-7-7-7-| 
C#|-0-0---0---10-7-8-|-0-0---0--------|-0-0---0---10-7-8-|-0-0-6-6-6-7-7-7-| 
    * *   *            * *   *          * *   *            * * 

Breakdown 

D#|-------------------|-------------------------------|--------------------------------| 
A#|-------------------|-------------------------------|--------------------------------| 
F#|-------------------|-------------------------------|--------------------------------|  x2 
C#|-8-(8)----5-(5)----|-------------------------------|--------------------------------| 
G#|-6-(6)----3-(3)----|-------------------------------|--------------------------------| 
C#|-6-(6)----3-(3)----|-\-TR0-TR0-0-0-0-0-0-0-0-0-0-0-|-TR0-TR0-0-0-0-0-0-0-0-0-3-1-b3-| 
                            *   *     *   *   * *         *   *     *   *   * * 
D#|-----------------------------|--------------------------------| 
A#|-----------------------------|--------------------------------| 
F#|-----------------------------|--------------------------------| 
C#|-----------------------------|--------------------------------| 
G#|-----------------------------|--------------------------------| 
C#|-TR0-TR0-0-0-0-0-0-0-0-0-0-0-|-TR0-TR0-0-0-0-0-0-0-0-0-3-1-b3-| 
      *   *     *   *   * *         *   *     *   *   * * 

Pre-Chorus 3 

D#|-------------------| 
A#|-------------------| 
F#|-------------------| 
C#|-8-(8)----5-(5)----| 
G#|-6-(6)----3-(3)----| 
C#|-6-(6)----3-(3)----| 

Chorus 3 

D#|-----------|-----------|---------------------| 
A#|-----------|-----------|---------------------| 
F#|-----------|-----------|---------------------| 
C#|-0-(0)-----|-0-(0)-----|-8-8-8-8-5-5-5-5-7-3-|  x2 
G#|-0-(0)-0-0-|-0-(0)-0-0-|-8-8-8-8-5-5-5-5-7-3-| 
C#|-0-(0)-0-0-|-0-(0)-0-0-|-8-8-8-8-5-5-5-5-7-3-| 
          * *         * *  
D#|-----------|-------------------|---------------------| 
A#|-----------|-------------------|---------------------| 
F#|-----------|-------------------|---------------------| 
C#|-0-(0)-----|-0-(0)-------------|-8-8-8-8-5-5-5-5-7-3-|   
G#|-0-(0)-0-0-|-0-(0)-------5-6-8-|-8-8-8-8-5-5-5-5-7-3-| 
C#|-0-(0)-0-0-|-0-(0)-5-6-8-------|-8-8-8-8-5-5-5-5-7-3-| 
          * *         * * * * * *  
D#|-----------|---------7---|---------------------| 
A#|-----------|--------b10--|---------------------| 
F#|-----------|-------------|---------------------| 
C#|-0-(0)-----|-0-(0)-------|-8-8-8-8-5-5-5-5-7-3-|   
G#|-0-(0)-0-0-|-0-(0)-0-----|-8-8-8-8-5-5-5-5-7-3-| 
C#|-0-(0)-0-0-|-0-(0)-0-----|-8-8-8-8-5-5-5-5-7-3-| 
          * *         * 

Outro 

Chorus 2 

D#|---------------------| 
A#|---------------------| 
F#|---------------------| 
C#|-8-8-8-8-5-5-5-5-7-3-| x2 
G#|-8-8-8-8-5-5-5-5-7-3-| 
C#|-8-8-8-8-5-5-5-5-7-3-| 

D#|-------------| 
A#|-------------| 
F#|-------------| 
C#|-5-5-5-5-7-3-| x2 
G#|-5-5-5-5-7-3-| 
C#|-5-5-5-5-7-3-| 

D#|------------------| 
A#|------------------| 
F#|------------------| 
C#|-5-5-5-5-7-3--0-0-|  
G#|-5-5-5-5-7-3--0-0-| 
C#|-5-5-5-5-7-3--0-0-| 


************************************ 

| ps  Pick slide 
| *   Palm mute 
| h   Hammer-on 
|( )  Let ring 
| b   Bend 
| \   Slide down 
| TR  Trill 

************************************ 
	  

Search Paypal
auto scroll beats size up size down change color hide chords drawings
tab show chords e-chords YouTube Clip e-chords hide all tabs e-chords go to top tab