A.n.i.m.a.l.

Solo Por Ser Indios

A.n.i.m.a.l.

tabs Intermediate intermediate

by  VITOCRUZ

save to print version add songbook text version e-mail correct tuner
chordsukulelecavacokeyboardtabbassdrumsharmonicaflute Guitar Pro
close

there isn't a video lesson for this song

chords

Solo Por Ser Indios

	  		Primero intro de viola en Make pAlM mUTeD RAcket 

riFf 1: 
G:-------------------------------------------------------------------| 
D:-------------------------------------------------------------------| 
A:------------------------------------------------------------------ | 
D:-3\0--0--0--0--0--0-0-0-3--3\0--0--0--0--0--0-0-0-0-3--00003--00003| 

riFf 2: 
G:-------------------------------------------------------------------| 
D:-------------------------------------------------------------------| 
A:-------------------------------------------------------------------| 
D:0--3---2---5---0-0---3---2---3---5---0---/6---5---3---0---3---2---5| 


riFf 3: (VErSo)(Cuando DiCE SOlO POr SeR InDIOS no CAlLES LAs CuERdAs) 
G:|---------------------------------|--------------------------------| 
D:|---------------------------------|--------------------------------| 
A:|---------------------------------|--------------------------------| 
D:|-3p0-0-0-0-0-3p0-0-0-0-0-3h4-3h4-|-3p0-0-0-0-0-3p0-0-0-0-0-3h4-3h4| 

riFf 4: (DeSpUes dE 'DUEñO dE la VISIón aSEsiNA') 
G:-------------------------------------------------------------------| 
D:------------------------------------repite-eso-unas----------------| 
A:------------------------------------cuantas-veces------------------| 
D:-5-5-5-5-5-5-5-5-5-5-5-5-3-3-4-4-----------------------------------| 

riFf 5: (DeSpUes dE 'DUEñO dE la VISIón aSEsiNA', LA SEGunDA vez) 
G:------------------------------------------------| 
D:------------------------------------------------| 
A:------------------------------------------------| 
D:-0-0-6-0-0-6-0-6-6-6-6-0-0-6-0-0-6--6--5--3--6--| 

riFf 6: (LA ParTe DE 'INOcenCia Y CoraJE') 
G:-----------------------------| 
D:-----------------------------| 
A:-----------------------------| 
D:-0---3---2-0-0-0-0-/6--5--3--| 

riFf 7: (LO que LLAman BRIdgE)(lET RiNG, DEjA QUE Suene) 
G:-------------------------------------------------------------------| 
D:-------------------------------------------------------------------| 
A:-------------------------------------------------------------------| 
D:-9----------9-----x\--9\7x-x-x-x-9\7-x-x-x-9\7---9\7x-x-x-x-9\7x-x-| 

Bueno sin mas los dejo, espero q les guste y q les sirva... no se si  
esta 100%, pero se acerca bastante, jeje? 
Bueno che aguante No Future q vive Loco (Aclaro, No Future es Mi banda  
jeje)? bueno listo me voy y termino esto? quejas a 

[email protected] y/o www.fotolog.net/puravida_bassman 


////***Robert-BassMan***////
		  

auto scroll beats size up size down change color hide chords drawings
tab show chords e-chords YouTube Clip e-chords hide all tabs e-chords go to top tab