A.n.i.m.a.l.

Fuerzas Para Aguantar

A.n.i.m.a.l.

tabs

by  VITOCRUZ

save to print version add songbook text version e-mail correct tuner
chordsukulelecavacokeyboardtabbassdrumsharmonicaflute Guitar Pro
close

there isn't a video lesson for this song

chords

Fuerzas Para Aguantar

Written by Dee Dee Ramone/Daniel Rey

	  		INTRO 
E------------------------------------------------------------4 
B------------------------------------------------------------V 
G------------------------------------------------------------E 
D------------------------------------------------------------C 
A-3--3-3--2--2-2----------------3--3-3-5--5-5----------------E 
E----------------5-5-3-5--0-3-0---------------5-5-3-5--0-5-0-S  

RIFF 1 
E-------------------------------4 
B-------------------------------V 
G-------------------------------E 
D-5--5-5--4--4-4----------------C 
A-3--3-3--2--2-2-7-7-5-7--------E 
E----------------5-5-3-5--0-3-0-S 

RIFF 2 
E-----------------------------4 
B-----------------------------V 
G-----------------------------E 
D------5-------5--------------C 
A-3-3--3--3-3--3-7-7-5-7----5-E 
E----------------5-5-3-5--0-3-S 
pm...     ... 

RIFF 3 
E----------------------------------------------------------------------------------------------------------------------------------- 
B----------------------------------------------------------------------------------------------------------------------------------- 
G----------------------------------------------------------------------------------------------------------------------------------- 
D-5-5-5-5-5-5-5-5-----------------5-5-5-5-5-5-5-5-----------------5-5-5-5-5-5-5-5--------------------------------------------------- 
A-3-3-3-3-3-3-3-3-7-7-7-7-7-7-7-7-3-3-3-3-3-3-3-3-5-5-5-5-5-5-5-5-3-3-3-3-3-3-3-3-7-7-7-7-7-7-7-7--5-5-5-5-5-5-5-5--3-3-3-3-3-3-3-3- 
E-----------------5-5-5-5-5-5-5-5-----------------3-3-3-3-3-3-3-3-----------------5-5-5-5-5-5-5-5--3-3-3-3-3-3-3-3--1-1-1-1-1-1-1-1- 

RIFF 4 
E----------------------------4 
B----------------------------V 
G----------------------------E 
D-5--5-5--4--4-4-------------C 
A-3--3-3--2--2-2-7-7-5-5---5-E 
E----------------5-5-3-5-0-3-S 
pm........................... 

INTRO 
INTRO(con wah) 
PESADO Y SIN ESPERANZA 

CONFUSION EN MI CORAZÓN 

ME PREGUNTO COMO HARE PARA PODER VER A TRAVES DE ESTA SENSACION. 

RIFF 1 
CADA GOTA QUE DERRAMES TAN HERMOSA PUEDE SER 

Y SEGURO ESTOY NENA 

DEMASIADA SANGRE DERRAME. 

CORO 

RIFF 3 
DAME FUERZA PARA AGUANTAR TODO ESTE PURO AMOR 

DAME FUERZA PARA AGUANTAR PORQUE,PORQUE... 

RIFF 2 
NO TEMO DECIRTE LAS COSAS COMO SON 

COMO UN HURACAN POR EL LADO FACIL CUIDARAS MI ESPALDA HOY 

RIFF 1 
ELLA DICE:HAY ALGO SOBRE VOS QUE LAS LUCES HACEN BRILLAR 

NENA NOSOTROS PODEMOS 

DAME TODA TU FUERZA YA!. 

CORO 2 

RIFF 3 
TENGO FUERZA PARA AGUANTAR TODO ESTE PURO AMOR 

TENGO FUERZA PARA AGUANTAR PORQUE,PORQUE... 

GUITAR SOLO 

RIFF 3 
TENGO FUERZA PARA AGUANTAR TODO ESTE PURO AMOR 

TENGO FUERZA PARA AGUANTAR MI AMOR,PORQUE... 

RIFF 4 
NO TEMO DECIRTE LAS COSAS COMO SON 

COMO UN HURACAN POR EL LADO FACIL CUIDARAS MI ESPALDA HOY 

RIFF 2 
ELLA DICE:HAY ALGO SOBRE TI QUE LAS LUCES HACEN BRILLAR 

NENA NOSOTROS PODEMOS 

DAME TODA TU FUERZA YA!. 

RIFF 3 
TENGO FUERZA PARA AGUANTAR TODO ESTE PURO AMOR 

TENGO FUERZA PARA AGUANTAR PORQUE,PORQUE... 

RIFF 3 
TENGO FUERZA PARA AGUANTAR TODO ESTE PURO AMOR 

TENGO FUERZA PARA AGUANTAR PORQUE,PORQUE... 

INTRO(3 VECES)LA PARTE FINAL Y EL SOLO FUE LO UNICO QUE FALTO PONER.
		  

auto scroll beats size up size down change color hide chords drawings
tab show chords e-chords YouTube Clip e-chords hide all tabs e-chords go to top tab