Angels and Airwaves

Crawl-my Heroine

Angels and Airwaves

tabs

by  HUGO_RODRIGUES

save to print version add songbook text version e-mail correct tuner
chordsukulelecavacokeyboardtabbassdrumsharmonicaflute Guitar Pro
close

there isn't a video lesson for this song

chords

Crawl-my Heroine

	  		
Intro 

(0:00-0:24) 
e|---------------------| 
B|---------------------| 
G|---------------------| 
D|-5-7-7-9-9-10-10-12--|x 4 
A|---------------------| 
E|---------------------| 

Verse 
(0:25-0:36) 
e|---------------------| 
B|---------------------| 
G|---------------------| 
D|--5555555555---------| 
A|--3333333333---------| 
E|---------------------| 

Chorus 
(0:37-1:01) 
e|---------------------| 
B|8-8-8-8-8-8--6-6-6-6-| x4 
G|-5-5-5-5-5-5--5-5-5-5| 
D|---------------------| 
A|---------------------| 
E|---------------------| 

Pre-verse 
(1:02-1:07) 
e|---------------------| 
B|---------------------| 
G|---------------------| x1 
D|-5-7-7-9-9-10-10-12--| 
A|---------------------| 
E|---------------------| 

Verse 
(1:08-1:20) 
e|---------------------| 
B|---------------------| 
G|---------------------| 
D|--5555555555---------| 
A|--3333333333---------| 
E|---------------------| 

Chorus 
(1:21-1:45) 
e|---------------------| 
B|8-8-8-8-8-8--6-6-6-6-| x4 
G|-5-5-5-5-5-5--5-5-5-5| 
D|---------------------| 
A|---------------------| 
E|---------------------| 

Chorus part 2 
(1:46-2:10) 
e|---------------------| 
B|---------------------| 
G|---------------------| x4 
D|-5555----------------| 
A|-3333-5555-7777-3333-| 
E|------3333-5555-1111-| 

Bridge 
(2:11-2:22) 
e|-----------------------------------| 
B|1-0-1-0-1-0-1-0-1-0-1-0-1-0000000--| 
G|-----------------------------------| 
D|-----------------------------------| 
A|-----------------------------------| 
E|-----------------------------------| 

Chorus 
(2:23-2:48) 
e|---------------------| 
B|8-8-8-8-8-8--6-6-6-6-| 
G|-5-5-5-5-5-5--5-5-5-5| x4 
D|---------------------| 
A|---------------------| 
E|---------------------| 

Chorus Part 2 
(2:49-3:12) 
e|---------------------| 
B|---------------------| 
G|---------------------| x4 
D|-5555----------------| 
A|-3333-5555-7777-3333-| 
E|------3333-5555-1111-| 

"It's Not over" 
(3:13-3:37) 
e|---------------------| 
B|---------------------| 
G|---------------------| x4 
D|-55555555------------| 
A|-33333333-5555-3333--| 
E|----------3333-1111--| 

End on 
(3:38) 
e|----| 
B|----| 
G|----| 
D|--5-| 
A|--3-| 
E|----| 
		  

auto scroll beats size up size down change color hide chords drawings
tab show chords e-chords YouTube Clip e-chords hide all tabs e-chords go to top tab