Angeles del Infierno

Todo Marcha Bien

Angeles del Infierno

tabs Easy easy

by  FABRCREPALDICOS

save to print version add songbook text version e-mail correct tuner
chordsukulelecavacokeyboardtabbassdrumsharmonicaflute Guitar Pro
close

there isn't a video lesson for this song

chords

Todo Marcha Bien

(Robert Alvarez)

	  		Intro ( x2 )  
::-------------------------:---------------------------::  
::-------------------------:---------------------------::  
::-------------------------:---------------------------::  
::-------------------------:---------------------------::  
::-2------2------2------2-3:-3------3------3------5-3--::  
::-0--0-0-0--0-0-0--0-0-0-1:-1--1-1-1--1-1-1--1-1-3-1--::  

Riff A ( x2 )  
   Guitarra 1  
::------7-8-7----:---------------:---------------:-7-8-7------7----::  
::-10------------:-----8-10-8----:-------------10:--------10-----9-::  
::-------------9-:-10------------:-7---9-10-9----:-----------------::  
::---------------:------------10-:---------------:-----------------::  
::---------------:---------------:---------------:-----------------::  
::---------------:---------------:---------------:-----------------::  
::                                                                 ::  
:: Guitarra 2                                                      ::  
::---------------:---------------:---------------:-----------------::  
::---------------:---------------:---------------:-----------------::  
::-9-------------:---------------:---------------:-----------------::  
::-7-----------9-:-10----------5-:-7-----------9-:---------------9-::  
::-------------7-:-8-----------3-:-5-----------7-:-9-------------7-::  
::---------------:---------------:---------------:-7---------------::  

   Verso 1  

E                   C   A  
No hay de que preocuparse  
G       C   A  
todo marcha bien  
E             C  A  
Ahora somos felices  
G       C   A  
todo marcha bien  
   

::------------------------------------:-------------------------------:  
::------------------------------------:-------------------------------:  
::------------------------------------:-------------------------------:  
::------------------------------------:-------------------------------:  
::-3------3------3----------3-5--3--5-:-3------3------3----------3--5-:  
::-1--1-1-1--1-1-1--1-1-1-1-1-3--1--3-:-1--1-1-1--1-1-1--1-1-1-1-1--3-:  
   Y nos sobra el dinero                y el trabajo tan bien  

:------------------------------------:-------------------------------:  
:------------------------------------:-------------------------------:  
:------------------------------------:-------------------------------:  
:------------------------------------:-----------------------------7-:  
:-3------3------3----------3-5--3--5-:-3------3------3----------3--5-:  
:-1--1-1-1--1-1-1--1-1-1-1-1-3--1--3-:-1--1-1-1--1-1-1--1-1-1-1-1----:  
  nadie engaña nadie roba              y se matan por placer  
   

  Verso 2  

E                C  A  
Nos joden y nos reímos  
G       C   A  
todo marcha bien  
E                   C  A  
nos importa todo un pijo  
G       C   A  
todo marcha bien  
   

::------------------------------------:-------------------------------:  
::------------------------------------:-------------------------------:  
::------------------------------------:-------------------------------:  
::------------------------------------:-------------------------------:  
::-3------3------3----------3-5--3--5-:-3------3------3----------3--5-:  
::-1--1-1-1--1-1-1--1-1-1-1-1-3--1--3-:-1--1-1-1--1-1-1--1-1-1-1-1--3-:  
   mañana un nuevo discurso             que nadie va a entender  

:------------------------------------:-------------------------------:  
:------------------------------------:-------------------------------:  
:------------------------------------:-------------------------------:  
:------------------------------------:-----------------------------7-:  
:-3------3------3----------3-5--3--5-:-3------3------3----------3--5-:  
:-1--1-1-1--1-1-1--1-1-1-1-1-3--1--3-:-1--1-1-1--1-1-1--1-1-1-1-1----:  
  prometo y luego no cumplo            volvemos a obedecer  
   

  ESTRIBILLO ( X 2 )  

::---------------:---------------:---------------:-----------------::  
::---------------:---------------:---------------:-----------------::  
::-9-------------:---------------:---------------:-----------------::  
::-7-----------9-:-10----------5-:-7-----------9-:---------------9-::  
::-------------7-:-8-----------3-:-5-----------7-:-9-------------7-::  
::---------------:---------------:---------------:-7---------------::  
  complaciente    sonriente    no he olvidado  enseñar los  dientes  
   

::-----------------------::  
::-----------------------::  
::-----------------------::  
::-----------------------::  
::-x-x-x-x-x-x-x-x-x-x-x-::  
::-----------------------::  
   

   Verso 3  

E               C     A  
Estamos todos de acuerdo  
G       C   A  
todo marcha bien  
E                  C  A  
a ver si dura cien años  
G       C   A  
todo marcha bien  
   

::------------------------------------:-------------------------------:  
::------------------------------------:-------------------------------:  
::------------------------------------:-------------------------------:  
::------------------------------------:-------------------------------:  
::-3------3------3----------3-5--3--5-:-3------3------3----------3--5-:  
::-1--1-1-1--1-1-1--1-1-1-1-1-3--1--3-:-1--1-1-1--1-1-1--1-1-1-1-1--3-:  
   los banqueros muy contentos          los usureros tan bien  

:------------------------------------:-------------------------------:  
:------------------------------------:-------------------------------:  
:------------------------------------:-------------------------------:  
:------------------------------------:-----------------------------7-:  
:-3------3------3----------3-5--3--5-:-3------3------3----------3--5-:  
:-1--1-1-1--1-1-1--1-1-1-1-1-3--1--3-:-1--1-1-1--1-1-1--1-1-1-1-1----:  
  y quien diga lo contrario            se ha vuelto loco o que  
   

Se repite de nuevo el estribillo y a continuación el solo.  

  SOLO  

  Guitarra 1  
  x5           x5           x5          x5          x5  
::--12-8-5--::--13-10-7--::--10-7-3--::--12-8-5--::--8-5-2--::  
::----------::-----------::----------::----------::---------::  
::----------::-----------::----------::----------::---------::  
::----------::-----------::----------::----------::---------::  
::----------::-----------::----------::----------::---------::  
::----------::-----------::----------::----------::---------::  
::                                                          ::  
:: Guitarra 2                                               ::  
::----------::-----------::----------::----------::---------::  
::----------::-----------::----------::----------::---------::  
::-9--------::-----------::-7--------::----------::-5-------::  
::-7--------::-7---------::-5--------::-5--------::-3-------::  
::----------::-5---------::----------::-3--------::---------::  
::----------::-----------::----------::----------::---------::  

   x5           x5  
::--10-7-3--::--7-2-0---:--10------:------------------------:  
::----------::----------:----------:-----------------10-----:  
::----------::----------:----------:-9-----9-----9------9-7-:  
::----------::----------:----------:---7-7---7-7---7--------:  
::----------::----------:----------:------------------------:  
::----------::----------:----------:------------------------:  
::                                                          :  
::                                                          :  
::----------::----------:----------:------------------------:  
::----------::----------:----------:------------------------:  
::----------::----------:----------:-9----------------------:  
::-4--------::-9--------:----------:-7----------------7-----:  
::-2--------::-7--------:----------:------------------5-----:  
::----------::----------:----------:------------------------:  
   

:-----------------------:--------------------------  
:-----------------8-----:------------------6-----  
:-----7-----7-------7-5-:--5-----5-----5-----5-4------  
:-5-5---5-5---5-5-------:----3-3---3-3---3----------------  
:-----------------------:---------------------  
:-----------------------:-------------------------  
:  
:  
:-----------------------:------------------------  
:-----------------------:--------------------------  
:-7---------------------:-5------------------------  
:-5--------------5------:-3-----------------4----  
:----------------3------:-------------------2------  
:-----------------------:------------------------  
   

:------------------------------------------------------:  
:------------------------------------------------------:  
:------------------------------------------------------:  
:-2-------2--------------------------------------------:  
:---3-2-0---3-2--3------3------3----------3--5--3--5---:  
:----------------1--1-1-1--1-1-1--1-1-1-1-1--3--1--3---:  

:------------------------------------------------------:  
:------------------------------------------------------:  
:------------------------------------------------------:  
:-2-------2--------------------------------------------:  
:---3-2-0---3-2--3------3------3----------3--5---------:  
:----------------1--1-1-1--1-1-1--1-1-1-1-1--3---------:  

:------------------------------------------------------:  
:------------------------------------------------------:  
:------------------------------------------------------:  
:-2-------2--------------------------------------------:  
:---3-2-0---3-2--3------3------3----------3--5--3--5---:  
:----------------1--1-1-1--1-1-1--1-1-1-1-1--3--1--3---:  

:------------------------------------------------:-----------.-------:  
:------------------------------------------------:-----------:-------:  
:------------------------------------------------:-----------:-------:  
:-2-------2--------------------------------------:--7--------:-7-----:  
:---3-2-0---3-2--3------3------3----------3--5---:--5--------:-5-----:  
:----------------1--1-1-1--1-1-1--1-1-1-1-1--3---:-----------:-------:  
   

Despues del solo la cancion continua con el estribillo y finalmente  
el riff A.
		  

Full key step upFull key step up
Half key step upHalf key step up
Half key step downHalf key step down
Full key step downFull key step down
auto scroll beats size up size down change color hide chords drawings
tab show chords e-chords YouTube Clip e-chords hide all tabs e-chords go to top tab

share