Angeles del Infierno

Sombras En La Oscuridad

Angeles del Infierno

tabs Advanced advanced

by  FABRCREPALDICOS

save to print version add songbook text version e-mail correct tuner
chordsukulelecavacokeyboardtabbassdrumsharmonicaflute Guitar Pro
close

there isn't a video lesson for this song

chords

Sombras En La Oscuridad

(Robert Alvarez)

	  		Angeles del Infierno - Sombras en la Oscuridad 

Aqui va el verdadero solo... 

Por fin ya salimos del cobach villa de seris, que se mueran todos 
los que estan dentro. 

Quiero decir que el primer solo de la cancion, es casi igual que el segundo 
solo que mas pequeño, se van a dar cuenta. Así que pondré el segundo solo ya 
que es mas completo y es el que quieren muchos. 

0/12 <-- significa que harás como un hammer sobre la cuerda sin golpearla y te 
desplazarás hasta el trasto '12' 

( )  <-- significa que mantendras el sonido continuo 

Solo: ... 

1-------------------------------7------|--------------------------------7----- 
2---10--10^11----10^11--8--8-10---8--10|-8--10--10^11----10^11--8--8-10---8-10 
3-------------10-----------------------|--------------10---------------------- 
4--------------------------------------|-------------------------------------- 
5--------------------------------------|-------------------------------------- 
6--------------------------------------|-------------------------------------- 

1-------------------------------------------------------------------------- 
2--13-13-12-11-13-12-13--13-13-12-11-13-12-13----------------12------------ 
3----------------------------------------------12--0/12-12-14--12-14------- 
4-------------------------------------------------------------------------- 
5-------------------------------------------------------------------------- 
6-------------------------------------------------------------------------- 

1--12-12-12--12-10---|-10/12-12-12--12-10---|--12-12-12--12-10-----(12) 
2------------------13|--------------------13|------------------13---- 
3--------------------|----------------------|------------------------ 
4--------------------|----------------------|------------------------ 
5--------------------|----------------------|------------------------ 
6--------------------|----------------------|------------------------ 

1--12-12-12--12-10---|-10/12-12-12--12-10---|--12-12-12--12-10-----------10-12 
2------------------13|--------------------13|------------------13--12-13------ 
3--------------------|----------------------|--------------------------------- 
4--------------------|----------------------|--------------------------------- 
5--------------------|----------------------|--------------------------------- 
6--------------------|----------------------|--------------------------------- 

1--10h12-10h12-10h12-10h12-10h12-|-------------------------------- 
2--------------------------------|--11h13-11h13-11h13-11h13-11h13- 
3--------------------------------|-------------------------------- 
4--------------------------------|-------------------------------- 
5--------------------------------|-------------------------------- 
6--------------------------------|-------------------------------- 

1--------------------------------------------15-17-------------------------- 
2--13h15-13h15-13h15-13h15-13h15--17~--17-18------15-17^18-17-17-17-17-17-17 
3--------------------------------------------------------------------------- 
4--------------------------------------------------------------------------- 
5--------------------------------------------------------------------------- 
6--------------------------------------------------------------------------- 

1---------------------------------------------------------------------------- 
2--14h16-14h16-14h16-14h16-14h16--14-14-14/3-3-3^-3^-5^---5-5-5-5-5-5-5-5-5-5 
3---------------------------------------------------------------------------- 

1--------------------------------------------------- 
2--3h5-3h5-3h5-3h5-3h5-3h5-3h5-3h5--5^~-(3)-3/17-17~ 
3--------------------------------------------------- 

1--12-12-12--12-10---|-10/12-12-12--12-10---|--12-12-12--12-10-----(12) 
2------------------13|--------------------13|------------------13---- 
3--------------------|----------------------|------------------------ 
4--------------------|----------------------|------------------------ 
5--------------------|----------------------|------------------------ 
6--------------------|----------------------|------------------------ 

1--12-12-12--12-10---|-10/12-12-12--12-10---|--12-12-12--12-10-----------10-12 
2------------------13|--------------------13|------------------13--12-13------ 
3--------------------|----------------------|--------------------------------- 
4--------------------|----------------------|--------------------------------- 
5--------------------|----------------------|--------------------------------- 
6--------------------|----------------------|--------------------------------- 

Ya mi mente está...
		  

auto scroll beats size up size down change color hide chords drawings
tab show chords e-chords YouTube Clip e-chords hide all tabs e-chords go to top tab

share