Angeles del Infierno

Sangre

Angeles del Infierno

tabs Expert expert

by  FABRCREPALDICOS

save to print version add songbook text version e-mail correct tuner
chordsukulelecavacokeyboardtabbassdrumsharmonicaflute Guitar Pro
close

there isn't a video lesson for this song

chords

Sangre

	  		    bien ai les ba una cansion de angeles del infierno 
    solo me salio y pues ai les ba 


        guitara 1               x1 
    e-----------------------------   
    B-----------------------------  
    G-------------------(7)------- 
    D-------------------(5)------- 
    A--7/(9)-------7/9------------ 
    E--5/(7)-------5/7------------ 

    guitara 1y2 al mismo tiempo x7 
    e----------------------------- 
    B----------------------------- 
    G-------------------(7)------- 
    D-------------------(5)------- 
    A--7/(9)-------7/9------------ 
    E--5/(7)-------5/7------------ 

      guitara 1 y 2            x1 
    e----------------------------- 
    B----------------------------- 
    G----------------------------- 
    D----------------------------- 
    A--7/(4)---------------------- 
    E--5/(2)---------------------- 

                               x3 
    e----------------------------- 
    B----------------------------- 
    G----------------------------- 
    D--7-------------------------- 
    A--5--9----7/9---9------------ 
    E-----7----5/7---7------------ 

                                       x1 
    e------------------------------------- 
    B------------------------------------- 
    G------------------------------------- 
    D--7---------------------------------- 
    A--5----4---4-4-4-4-4-4-4-4-4-4-4-4-4- 
    E-------2---2-2-2-2-2-2-2-2-2-2-2-2-2- 

     guitara 1y2 al mismo tiempo x5 
    e----------------------------- 
    B----------------------------- 
    G-------------------(7)------- 
    D-------------------(5)------- 
    A--7/(9)-------7/9------------ 
    E--5/(7)-------5/7------------ 

     guitara 1 y 2            x1 
    e----------------------------- 
    B----------------------------- 
    G----------------------------- 
    D----------------------------- 
    A--7/(4)---------------------- 
    E--5/(2)---------------------- 

                              x3 
    e----------------------------- 
    B----------------------------- 
    G----------------------------- 
    D--7-------------------------- 
    A--5--9----7/9---9------------ 
    E-----7----5/7---7------------ 
                                   x1 
    e------------------------------------- 
    B------------------------------------- 
    G------------------------------------- 
    D--7---------------------------------- 
    A--5----4---4-4-4-4-4-4-4-4-4-4-4-4-4- 
    E-------2---2-2-2-2-2-2-2-2-2-2-2-2-2- 

     guitara 1                 x4 
    e----------------------------- 
    B----------------------------- 
    G-------------------(7)------- 
    D-------------------(5)------- 
    A--7/(9)-------7/9------------ 
    E--5/(7)-------5/7------------ 

     guitara 1 y 2            x1 
    e----------------------------- 
    B----------------------------- 
    G----------------------------- 
    D----------------------------- 
    A--7/(4)---------------------- 
    E--5/(2)---------------------- 

                          x3 
    e----------------------------- 
    B----------------------------- 
    G----------------------------- 
    D--7-------------------------- 
    A--5--9----7/9---9------------ 
    E-----7----5/7---7------------ 

                                   x1 
    e------------------------------------- 
    B------------------------------------- 
    G------------------------------------- 
    D--7---------------------------------- 
    A--5----4---4-4-4-4-4-4-4-4-4-4-4-4-4- 
    E-------2---2-2-2-2-2-2-2-2-2-2-2-2-2- 

     guitara 1 y 2            x1 
    e----------------------------- 
    B----------------------------- 
    G----------------------------- 
    D--(7)------------------------ 
    A--(5)---------(9)------------ 
    E--------------(7)------------ 

    bueno pues ai esta espero que les guste y que me 
    ayuden a sacar el solo. apenas yebo una pequeña parte  
    del solo. bueno mi email es [email protected] 
    dinganme que tal esta la cansion y traten de sacar el solo.
		  

auto scroll beats size up size down change color hide chords drawings
tab show chords e-chords YouTube Clip e-chords hide all tabs e-chords go to top tab

share