Angeles del Infierno

Prohibidos Cuentos

Angeles del Infierno

tabs Expert expert

by  JOSEP1

save to print version add songbook text version e-mail correct tuner
chordsukulelecavacokeyboardtabbassdrumsharmonicaflute Guitar Pro
close

there isn't a video lesson for this song

chords

Prohibidos Cuentos

	  		Autor: robert alvarez 


   Riff A ( x4 )  
::------------------:-------------------:------------  
::------------------:-------------------:------------  
::------------------:-------------------:------------  
::------------------:-------------------:------------  
::-2-----2-----2----:-3-----3------3----:-5------5---  
::---0-0---0-0----0-:---0-0---0-0-----0-:----0-0-----  

--------PROHIBIDOS --:------------------::----------------------:  
----------:------------------::----------------------:  
----------:------------------::---4------------------:  
----------:------------------::---4------------------:  
-----5----:-3------3-----3---::---2------------------:  
-0-0----0-:----0-0---0-0---0-::----------------------:  

Riff B ( x4 )  
::-------------------------------------::----------------------  
::-------------------------------------::----------------------  
::-------------------------------------::----------------------  
::-5---4---5---------5--7----5---------::--------------5--7--5-  
::-3---2---3---------3--5----3--2------::-2------------3--5--3-  
::---0---0----0-0-0-------------0--0-0-::-0--------------------  
                                          Me han educado  
                                          Pasiones muertas  
   

---:-----------------------:-----------------------:--------------------::  
---:-----------------------:-----------------------:--------------------::  
---:-----------------------:-----------------------:--------------------::  
---:------------5--7--5----:------------5--7--5----:------------5--7--5-::  
-2-:------------3--5--3--2-:------------3--5--3--2-:------------3--5--3-::  
-0-:---------------------0-:---------------------0-:--------------------::  
   a ser formal             contestatarios          ni oír hablar  
   que resucitan            deseos ocultos          vuelven a mí  
   

:--------------------------------------------:-----------------------  
:--------------------------------------------:-----------------------  
:--------------------------------------------:-----------------------  
:-2-----------------------5------------------:------5---4---5--------  
:-0-----0-0-0-0-0--5------3------------------:-2----3---2---3--------  
:------------------3-------------------------:-0--0---0---0----0-0-0-  
  en tres algos aprendí   que es el bien y el mal  
  no me reprimiré         me olvidare de ti  
   

------------::---------------------------:---------------------------:  
------------::---------------------------:---------------------------:  
------------::---------------------------:---------------------------:  
-5---4---5--::-2------------2------------:-5------------5------------:  
-3---2---3--::-0--0-0-0-0-0-0--0-0-0-0-0-:-3--3-3-3-3-3-3--3-3-3-3-3-:  
---0---0----::---------------------------:---------------------------:  
               Muchas       oraciones     y   arrepentimientos  
               muchas      diversiones     menos oraciones  

                                x3  
------------------------------::--------------------------::  
------------------------------::--------------------------::  
------------------------------::--------------------------::  
-7------------7-------------9-::------10-----9------7-9---::  
-5--5-5-5-5-5-5--5-5-5-5-5--7-::--7-------7-----7-----7---::  
------------------------------::--------------------------::  
 si  no  habrá  castigo     con el fuego eterno........  
 prefiero estar contigo       y arder en el infierno.......  
   

Estribillo  
:------------------------------------------------------------------  
:------------------------------------------------------------------  
:------------------------------------------------------------------  
:-------2----5---3---2-2-------------------------------------------  
:-------0--0---0---0---0---0-0-0-0-0--2----5---3---2-2-------------  
:-------------------------------------0--0---0---0---0--0-0-0-0-0--  
oscura noche             secretos sueños               falsos profetas  
   

-----------------------------------------------------------:------------:  
-----------------------------------------------------------:------------:  
-----------------------------------------------------------:------------:  
-2----5---3---2-2------------------------------------------:-7----------:  
-0--0---0---0---0---0-0-0-0-0--2----5---3---2-2------------:-5----------:  
-------------------------------0--0---0---0---0--0-0-0-0-0-:------------:  
                  prohibidos cuentos                         Oooooh  

--------:---------:--------:--------:--------:--------:---------:  
--------:---------:--------:--------:--------:--------:---------:  
--------:---------:--------:--------:--------:--------:---------:  
-5------:-3-------:-2------:-7------:-5------:--------:---------:  
-3------:-1-------:-0------:-5------:-3------:-5------:-7-------:  
--------:---------:--------:--------:--------:-3------:-5-------:  
ooooh      oooooh.............................  

  ( x2 )  
::------------------------------------::  
::------------------------------------::  
::------------------------------------::  
::------5----4---5---------5--7----5--::  
::-2----3----2---3---------3--5----3--::  
::-0--0----0---0----0-0-0-------------::  
   

Riff C después del solo  
::------------------------------------------------------------  
::-------------------------------------------------------------  
::--------------------------------------------------------------  
::-5----4------------------5--7--5----4---------------5----4-----------  
::-3----2----2----------2--3--5--3----2----------2----3----2----------  
::-----------0--0-0-0-0-0----------------0-0-0-0-0-------------  

-----------------------------:-------------------------::  
-----------------------------:-------------------------::  
-----------------------------:-------------------------::  
---------------5--7--5----4--:-9-----10-----9-----7/9--::  
-2----------2--3--5--3----2--:-7--7------7-----7----7--::  
-0--0-0-0-0-0----------------:-------------------------::
		  

auto scroll beats size up size down change color hide chords drawings
tab show chords e-chords YouTube Clip e-chords hide all tabs e-chords go to top tab

share