Angeles del Infierno

Maldito sea tu nombre

Angeles del Infierno

tabs

by  ELINJENIERILLO

save to print version add songbook text version e-mail correct tuner
chordsukulelecavacokeyboardtabbassdrumsharmonicaflute Guitar Pro
close

there isn't a video lesson for this song

chords

Maldito sea tu nombre

	  		Intro 

Grt1					  Grt 2 

Bien oculto en tu disfraz... 
e--------------------------------------|------------------------------- 
B--------------------------------------|------------------------------- 
G--------------------------------------|------------------------------- 
D----------------------9-0-0-----------|------------------------------- 
A---7-0-0-9-0-0-10-0-0-------10-9-7----|--7------------------5/7------- 
E--------------------------------------|--5------------------3/5------- 
  (Repeat 8 times) 

Riff1 Gtr1 & Gtr2 

Princípe de las tienieblas...  
e---------------------------------------------- 
B---------------------------------------------- 
G---------------------------------------------- 
D-7777777777777777/5-----7777777777777777/5---- 
A-7777777777777777/5-----7777777777777777/5---- 
E-5555555555555555/3-----5555555555555555/3---- 
  (Repeat 2 times) 

Bridge Gtr1 & Gtr2 

Haces siempre lo que quieres... 
e-------------/4times/------------------------------ 
B--------------------------------------------------- 
G-----7-------7h8h9p-------------------------------- 
D-3---7--2--------------3---7--2--7-77-7-77--------- 
A-3---5--2--------------3---5--2--7-77-7-77--------- 
E-1------0--------------1------0--5-55-5-55--------- 

Chorus Gtr1 & Gtr2 

Maldito...  
e--------------------------------|------------------------------- 
B--------------------------------|------------------------------- 
G--------------------------------|------------------------------- 
D-3---------5---------7-77-7-77--|-3---------5--------7-77-7-77-- 
A-3-3-1-----5-5-3-----7-77-7-77--|-3-3-1-----5-5-3----7-77-7-77-- 
E-1----3-1--3----5-3--5-55-5-55--|-1----3-1--3----5-3-5-55-5-55-- 
play twice 

Then Gtr1 plays Intro and Gtr2 Riff1 
   
Before Solo 

Grt1				Grt2 

e----------------------------|--------------------------------- 
B----------------------------|--------------------------------- 
G----------------------------|--------------------------------- 
D--77777------------5/77777--|-77777------------5/77777-------- 
A--77777------------5/77777--|-77777--------5b--5/77777--3-3b-- 
E--55555------------3/55555--|-55555-0-5-7-8----3/55555-5------ 

Grt1				Grt2 

e----------------------------|--------------------------------- 
B----------------------------|--------------------------------- 
G----------------------------|--------------------------------- 
D--77777------------5/77777--|-77777------------5/77777-------- 
A--77777------------5/77777--|-77777--------5b--5/77777--3----- 
E--55555------------3/55555--|-55555-0-5-7-8----3/55555-5--3b-- 


During the solo repeat Riff1 (twice) and bridge then this harmony part 

Gtr1 						Gtr2 

e--------------------------------------|--8-6-8-6------10-8-10-8-------------- 
B--------------------------------------|-6---6---8-6--8----8----10-8---------- 
G--------------------------------------|-------------------------------------- 
D-3------------5------------7-77-7-77--|----------------------------7-77-7-77- 
A-3-3-1-3-1----5-5-3-5-3----7-77-7-77--|----------------------------7-77-7-77- 
E-1----1---3-1-3---3----5-3-5-55-5-55--|----------------------------5-55-5-55- 


Gtr1 						Gtr2 

e--------------------------------------|-------------------------------------- 
B--------------------------------------|-------------------------------------- 
G--------------------------------------|--5h4h3h5h4h3--7h6h5h7h6h5---5h7b/13p- 
D-3------------5------------7-77-7-77--|-------------5p-----------7p---------- 
A-3-3-1-3-1----5-5-3-5-3----7-77-7-77--|-------------------------------------- 
E-1----1---3-1-3---3----5-3-5-55-5-55--|-------------------------------------- 

Then repeat Chorus 4 times. 
[email protected] 







		  

auto scroll beats size up size down change color hide chords drawings
tab show chords e-chords YouTube Clip e-chords hide all tabs e-chords go to top tab

share