Angeles del inferno

Al otro lado del silencio

Angeles del inferno

tabs

by  CORRAL URIAS

save to print version add songbook text version e-mail correct tuner
chordsukulelecavacokeyboardtabbassdrumsharmonicaflute Guitar Pro
close

there isn't a video lesson for this song

chords

Al otro lado del silencio

	  		Angeles del infierno 
Al otro lado del silencio 
Por [email protected] 
 
INTRO 
1.---------------------------- 
2.---------------------------- 
3.---------------------------- 
4.---------------------------- 
5.---0-0-2-3-5-3-2-0-2-3-2---0 
6.-0-----------------------3-- 
 
1.------------------------------ 
2.------------------------------ 
3.------------------------------ 
4.------------------------------ 
5.---0-0-2-3-5-3-2-0-2-3-2-3-5-7 
6.-0---------------------------- 
 

		  

auto scroll beats size up size down change color hide chords drawings
tab show chords e-chords YouTube Clip e-chords hide all tabs e-chords go to top tab

share