Angel Dust

Temple Of The King

Angel Dust

tabs Beginner beginner

save to print version add songbook text version e-mail correct tuner
chordsukulelecavacokeyboardtabbassdrumsharmonicaflute Guitar Pro
close

there isn't a video lesson for this song

chords

Temple Of The King

	  		Afinação : Eb


Intro (Violão)

 Am                 F          G                  Am
E-0--0----0---------1-1---------------0-------------------------------
B-1---1--3-3-1-3-1--1---1------3-3---3--3-1-3-1------0h1------0h1-----
G-2----2------------2-----2----0--4---------------------2--------2----
D-2-----------------3-------3------0---------------2-----2--2-----2---
A-0-----------------3----------2------------------0--------0----------
E-------------------1----------3--------------------------------------
  Am               F                G                Am  
E-0-0---0----------1-1--------1------------0-------------------------------------
B-----3---3-1-3-1--1---1-------1----3-3---3-3-1-3-1------0h1---------------------
G------------------2-----2---2--2---0-------------------2---2--------------------
D------------------3--------3--------------------------2-----2---------2-0-------
A------------------3----------------2----------------0--------0---0-2-3----2-3---
E------------------1----------------3--------------------------------------------

Verso (2x)

  C         G          Dm        Am          F         G         Am
E-----0---------3---------0h1-------------------1---------3-----------------------------------------
B------1-------3-3-------3---3-------0h1-------1-1-------3-3--------0h1-----------------------------
G---0---0-----0---0-----2-----2-----2---2-----2---2-----4---4------2---2----(---1ªvez---)-(2ªvez)---
D--2-----2---------0---0-----------2-----2---------3---------5----2-----2---------2-0---------------
A-3-------------------------------0------------------------------0-------0---0-2-3---2-3---0-0-3----
E-----------3--------------------------------1---------3--------------------------------------------

Bridge (acordes com hammers fáceis)
Dm Am (3x)
Dm E F G

Volta para:
  Am             F          G                    Am
E-0-0--0---------1---1------3---------0--------------5--------5---------------
B-----3-3-1-3-1--1-1--1-----3-3--3---3-3-1-3-1------5-5------5-5--------------
G----------------2--2--2----4--4--4----------------5---5----5---5-------------
D----------------3------3---5---5--5--------------------7--------7------------
A----------------3----------5-------------------------------------------------
E----------------1----------3--------------------5---------5------------------
  Am             F           G               Am
E-0-0--0---------1---1--1---------0------------5--------------------
B-----3-3-1-3-1--1-1--1--1---3-3-3-3-1-3-1----5-5-------------------
G----------------2--2--2--2------------------5---5------------------
D----------------3--------------------------------7--------2-0------
A----------------3------------------------------------0-2-3---2-3---
E----------------1--------------------------5-------5---------------

Entra guitarra (acordes arpejados ao fundo) (1:59)
  C  G  Dm Am C  G  Am                C  G Dm Am  F  G Am   
E---------------------------------------------------------------
B---------------------------------------------------------------
G-5-----7-----5-----------------------5-----7-------------------
D-5--5--7--7--5--5--7-------2-0-------5--5--7--7--3--5--7--/x---
A-3--5--5--7--3--5--7---0-2-3---2-3---3--5--5--7--3--5--7--/x---
E----3-----5-----3--5--------------------3-----5--1--3--5-------

Bridge 2 

E(               3xs                   )-------------------------------------------
B--------------------------h.a.-----h.a.-------------------------------------------
G---------------------------(5)-----(5)----------------------------9~~~------------
D-7-77-7-77-7-7-7-7-7--2-------2--------------7-77-7-77-7-7-7-7-7--9~~~/x---3--5---
A-5-55-5-55-5-5-5-5-5--0-0000--0-0000---------5-55-5-55-5-5-5-5-5--7~~~/x---3--5---
E---------------------------------------------------------------------------1--3---

(3:00)

E----------------------------------------------------
B-3/5--5--3-5-3-1-3-1--------1h3--3-3-5-3-1-3-1------
G--------------------2~~~~~--------------------2~~~~~
D----------------------------------------------------
A----------------------------------------------------
E----------------------------------------------------

E--------------------------------------------------------
B-3/5-5--3-5-3-1-3-1--------1h3--3-3-5-3-1-3-1--3/5~~~---
G-------------------2~~~~~-------------------------------
D--------------------------------------------------------
A--------------------------------------------------------
E--------------------------------------------------------

Solo de teclado com base : Am F Am F Am G D Em

Bridge 2

Solo de guitarra (4:29) - se acharem algum erro me mandem um email -

E-/5~~~---------------------------------8bbb10-8b10r8-5--------------------------------------------------------
B------/6-5--------------5-----------------------------8/10-8-6-5-6-5------------------------5-----------------
G----------7-5---5h7~~~-7-7-5-7b9p5-----------------------------------7-5--4-5-4------5-7---7-7-5-7bbbbb9p5----
D-----------------------------------7~~~----------------------------------------7-5-7----------------------7---
A--------------------------------------------------------------------------------------------------------------
E--------------------------------------------------------------------------------------------------------------

E-----------------------------15b~b17--15b17------------------------------------------------------------------------
B-15h17-15-----------------------------------18-17--------------------------------15b16r15--------------------------
G---------16-17-16-14-12-14~~~--------------------17--14-16-17--17p16p14-12-14~~~---------16-17.16-14-12-14-17-14---
D-------------------------------------------------------------------------------------------------------------------
A-------------------------------------------------------------------------------------------------------------------
E-------------------------------------------------------------------------------------------------------------------

E--------------------------------------------------------------------------------
B-15bbbb17-15b17-15-17-15----15---------13/15-15---15-17-15---15--15/17~~~~~~~---
G-------------------------17---17-14~~~--------------------17---17---------------
D--------------------------------------------------------------------------------
A--------------------------------------------------------------------------------
E--------------------------------------------------------------------------------

Final

E-(           2xs               )---
B-----------------------------------
G-----------------(repete verso)----
D-------2-0-------------------------
A-0-2-3-----2-3---------------------
E------------------------------------

E-0-0--0---------1---1--1---------0------------5--------5------
B-----3-3-1-3-1--1-1--1--1---3-3-3-3-1-3-1----5-5------5-5-----
G----------------2--2--2--2------------------5---5----5---5----
D----------------3--------------------------------7--------7---
A----------------3---------------------------------------------
E----------------1--------------------------5-------5----------

E-0-0--0---------1---1--1---------0-----------------------3---
B-----3-3-1-3-1--1-1--1--1---3-3-3-3-1-3-1------0-1-0-----1---
G----------------2--2--2--2--------------------2-----2----2---
D----------------3----------------------------2-------2---2---
A----------------3---------------------------0------------0---
E----------------1--------------------------------------------

_______________________________________________________
Contribuição: Gabriel "Satriani" Vendramini([email protected])
		  

Full key step upFull key step up
Half key step upHalf key step up
Half key step downHalf key step down
Full key step downFull key step down
hide glossary

See also:

tabs Pixies - Gigantic tabs Badly Drawn Boy - Something To Talk About tabs Interpol - Slow Hands tabs Black Crowes - Jealous Again tabs Gary Moore - Parisienne Walkways tabs Eddie Vedder - Long Nights
e-chords

Other versions:

tabs Angel Dust - Temple Of The King
auto scroll beats size up size down change color hide chords drawings
tab show chords e-chords YouTube Clip e-chords hide all tabs e-chords go to top tab

share