Andy Mckee

The Friend I Never Met

Andy Mckee

tabs

by  BOMBAXXX

save to print version add songbook text version e-mail correct tuner
chordsukulelecavacokeyboardtabbassdrumsharmonicaflute Guitar Pro
close

there isn't a video lesson for this song

chords

The Friend I Never Met

	  		

Percussion explanation: 

 e||-----------------------------------------------------------------------------| 
 B||--Middle finger---------All fingers-together---Pinky-ring-middle-forefinger--| 
 G||-----------------------------------------------------------------------------| 
 D||------------------------X----------------------------------------------------| 
 A||------------------------X----------------------X-----------------------------| 
 E||--x---------------------X----------------------X-----------------------------| 

Intro: 

 e||--------------------------| 
 B||--7--0--7--0--7--0--7--0--| 
 G||--7--0--7--0--7--0--7--0--| 
 D||--------------------------| 
 A||--------------------------| x7 
 E||--------------------------| 

 e||--------------------------| 
 B||--7--0--7--0--7--0--7--0--| 
 G||--7--0--7--0--7--0--7--0--| 
 D||--------------0-----------| 
 A||--------------------------| 
 E||-------------------h12----| 

Main part: 

 e||--------------------------------------------------| 
 B||--7--0--7--0--7--0--7--0--7--0--7--0--7--0--7--0--| 
 G||--7--0--7--0--7--0--7--0--7--0--7--0--7--0--7--0--| 
 D||----------------------<12>------------------------| 
 A||-------------<12>-----------<12>------------------| 
 E||-p0----------------------------------<7>----------| 

 e||--------------------------------------------------| 
 B||--7--0--7--0--7--0--7--0--7--0--7--0--7--0--7--0--| 
 G||--7--0--7--0--7--0--7--0--7--0--7--0--7--0--7--0--| 
 D||----------------------<12>------------0-----------| 
 A||-------------<7>------------<12>------------------| 
 E||--0----------------------------------------h12----| 

 e||--------------------------------------------------| 
 B||--7--0--7--0--7--0--7--0--7--0--7--0--7--0--7--0--| 
 G||--7--0--7--0--7--0--7--0--7--0--7--0--7--0--7--0--| 
 D||----------------------<12>------------------------| 
 A||-------------<12>-----------<12>------------------| 
 E||-p0----------------------------------<7>----------| 

 e||--------------------------------------------------| 
 B||--7--0--7--0--7--0--7--0--7--0--7--0--7--0--7--0--| 
 G||--7--0--7--0--7--0--7--0--7--0--7--0--7--0--7--0--| 
 D||----------------------<12>------------------0-----| 
 A||-------------<7>------------<12>------------------| 
 E||--0-----------------------------------------------| 

 e||--------------------------------------------------| 
 B||--8--0--8--0--8--0--8--0--8--0--8--0--8--0--8--0--| 
 G||--7--0--7--0--7--0--7--0--7--0--7--0--7--0--7--0--| 
 D||-------------<12>---------------------------------| 
 A||----------------------<19>-----------<12>---------| 
 E||--8-------------------------<19>------------------| 

 e||--------------------------------------------------| 
 B||--8--0--8--0--8--0--8--0--8--0--8--0--8--0--8--0--| 
 G||--7--0--7--0--7--0--7--0--7--0--7--0--7--0--7--0--| 
 D||----------------------<12>------------0-----------| 
 A||-------------<19>---------------------------------| 
 E||--8----------------------------------------h12----| 

 e||--------------------------------------------------| 
 B||--7--0--7--0--7--0--7--0--7--0--7--0--7--0--7--0--| 
 G||--7--0--7--0--7--0--7--0--7--0--7--0--7--0--7--0--| 
 D||----------------------<12>------------------------| 
 A||-------------<12>-----------<12>------------------| 
 E||-p0----------------------------------<7>----------| 

 e||--------------------------------------------------| 
 B||--7--0--7--0--7--0--7--0--7--0--7--0--7--0--7--0--| 
 G||--7--0--7--0--7--0--7--0--7--0--7--0--7--0--7--0--| 
 D||----------------------<12>------------------0-----| 
 A||-------------<7>------------<12>------------------| 
 E||--0-----------------------------------------------| 

 e||--------------------------------------------------| 
 B||--8--0--8--0--8--0--8--0--7--0--7--0--7--0--7--0--| 
 G||--7--0--7--0--7--0--7--0--7--0--7--0--7--0--7--0--| 
 D||--------------------------------------X--------X--| 
 A||--------------------------------------X--X-----X--| 
 E||--8--------------------------------X--X--X--X--X--| 

 e||--------------------------------------------------| 
 B||--8--0--8--0--8--0--8--0--7--0--7--0--7--0--7--0--| 
 G||--7--0--7--0--7--0--7--0--7--0--7--0--7--0--7--0--| 
 D||--------------------------------------------------| 
 A||--------------------------------------0-----------| 
 E||-------------------------h3-----------------------| 

 e||--2--0--2--0--2--0--2--0--2--0--2--0--2--0--2--0--| 
 B||--3--0--3--0--3--0--3--0--3--0--3--0--3--0--3--0--| 
 G||-------------------------------------<7>----------| 
 D||----------------------<12>--------------------<7>-| 
 A||-------------<12>---------------------------------| 
 E||-p0-----------------------------------------------| 

 e||--2--0--2--0--2--0--2--0--2--0--2--0--2--0--2--0--| 
 B||--3--0--3--0--3--0--3--0--3--0--3--0--3--0--3--0--| 
 G||--------------------------------------------------| 
 D||--------------------------------0-----------------| 
 A||----<7>-------------------------------------------| 
 E||-------------------------------------h8----s7-----| 

 e||--------------------------------------------------| 
 B||--8--0--8--0--8--0--8--0--7--0--7--0--7--0--7--0--| 
 G||--7--0--7--0--7--0--7--0--7--0--7--0--7--0--7--0--| 
 D||--------------------------------------X--------X--| 
 A||--------------------------------------X--X-----X--| 
 E||-p3--------------------------------X--X--X--X--X--| 

 e||--------------------------------------------------| 
 B||--8--0--8--0--8--0--8--0--7--0--7--0--7--0--7--0--| 
 G||--7--0--7--0--7--0--7--0--7--0--7--0--7--0--7--0--| 
 D||-----X--------------------------------------------| 
 A||-----X--------------------------------0-----------| 
 E||-----X-------------------h3-----------------------| 

 e||--2--0--2--0--2--0--2--0--2--0--2--0--2--0--2--0--| 
 B||--3--0--3--0--3--0--3--0--3--0--3--0--3--0--3--0--| 
 G||----------------------<12>--------------------<7>-| 
 D||-------------<12>--------------------<7>----------| 
 A||--------------------------------------------------| 
 E||-p0-----------------------------------------------| 

 e||--2--0--2--0--2--0--2--0--2--0--2--0--2--0--2--0--| 
 B||--3--0--3--0--3--0--3--0--3--0--3--0--3--0--3--0--| 
 G||--------------------------------------------------| 
 D||--------------------------------0-----------------| 
 A||-------------------------------------h7----p0-----| 
 E||--------------------------------------------------| 

 e||--------------------------------------------------| 
 B||--8--0--8--0--8--0--8--0--8--0--8--0--8--0--8--0--| 
 G||--7--0--7--0--7--0--7--0--7--0--7--0--7--0--7--0--| 
 D||--------------------------0-----------------------| 
 A||-------------h10------------------<12>------------| 
 E||-h8-----------------------------------------------| 

 e||--------------------------------------------------| 
 B||--7--0--7--0--7--0--7--0--7--0--7--0--7--0--7--0--| 
 G||--7--0--7--0--7--0--7--0--7--0--7--0--7--0--7--0--| 
 D||--------------------------0-----------------------| 
 A||-------------h10----------------------------------| 
 E||-h8-------------------------------<12>------------| 

 e||--------------------------------------------------| 
 B||--8--0--8--0--8--0--8--0--8--0--8--0--8--0--8--0--| 
 G||--7--0--7--0--7--0--7--0--7--0--7--0--7--0--7--0--| 
 D||--------------------------0-----------------------| 
 A||-------------h10------------------<12>------------| 
 E||-h8-----------------------------------------------| 

 e||--------------------------------------------------| 
 B||--7--0--7--0--7--0--7--0--7--0--7--0--7--0--7--0--| 
 G||--7--0--7--0--7--0--7--0--7--0--7--0--7--0--7--0--| 
 D||--0-------------------<12>------------------------| 
 A||-------------<12>---------------------------------| 
 E||--------------------------------------------------| 

Play main part once again (without playing first bass note) 

Bridge: 

 e||--------------------------------------------------------------| 
 B||--7--0--7--0--7--0--7--0--7--0--8--0--8--0--8--0--8--0--8--0--| 
 G||--7--0--7--0--7--0--7--0--7--0--7--0--7--0--7--0--7--0--7--0--| 
 D||-----------------------------------------0--------------------| 
 A||----------h2--------------------------------------------------| 
 E||--0----------------------------h3-----------------------------| 

 e||--5--0--5--0--5--0--5--0--5--0--7--0--7--0--7--0--7--0--7--0--| 
 B||--5--0--5--0--5--0--5--0--5--0--7--0--7--0--7--0--7--0--7--0--| 
 G||--------------------------------------------------------------| 
 D||----------h2-------------------p0-------h7--------------------| 
 A||--0-----------------------------------------------------------| 
 E||--------------------------------------------------------------| 

 e||--------------------------------------------------------------| 
 B||--8--0--8--0--8--0--8--0--8--0--7--0--7--0--7--0--7--0--7--0--| 
 G||--7--0--7--0--7--0--7--0--7--0--7--0--7--0--7--0--7--0--7--0--| 
 D||--------------------------------0-----------------------------| 
 A||----------h10---------------------------h12-------------------| 
 E||-h8-----------------------------------------------------------| 

 e||--5--0--5--0--5--0--5--0--5--0--------------------------------| 
 B||--5--0--5--0--5--0--5--0--5--0--8--0--8--0--8--0--8--0--8--0--| 
 G||--------------------------------7--0--7--0--7--0--7--0--7--0--| 
 D||----------h9----------------------------h10------h9-----------| 
 A||-h7----------------------------h9-----------------------------| 
 E||--------------------------------------------------------------| 

 e||--------------------------------------------------------------| 
 B||--7--0--7--0--7--0--7--0--7--0--8--0--8--0--8--0--8--0--8--0--| 
 G||--7--0--7--0--7--0--7--0--7--0--7--0--7--0--7--0--7--0--7--0--| 
 D||-----------------------------------------0--------------------| 
 A||----------h2--------------------------------------------------| 
 E||--0----------------------------h3-----------------------------| 

 e||--5--0--5--0--5--0--5--0--5--0--7--0--7--0--7--0--7--0--7--0--| 
 B||--5--0--5--0--5--0--5--0--5--0--7--0--7--0--7--0--7--0--7--0--| 
 G||--------------------------------------------------------------| 
 D||----------h2-------------------p0-------h7--------------------| 
 A||--0-----------------------------------------------------------| 
 E||--------------------------------------------------------------| 

 e||--------------------------------------------------------------| 
 B||--8--0--8--0--8--0--8--0--8--0--7--0--7--0--7--0--7--0--7--0--| 
 G||--7--0--7--0--7--0--7--0--7--0--7--0--7--0--7--0--7--0--7--0--| 
 D||--------------------------------0-----------------------------| 
 A||----------h10---------------------------h12-------------------| 
 E||-h8-----------------------------------------------------------| 

 e||--5--0--5--0--5--0--5--0--5--0--------------------------------| 
 B||--5--0--5--0--5--0--5--0--5--0--8--0--8--0--8--0--8--0--8--0--| 
 G||--------------------------------7--0--7--0--7--0--7--0--7--0--| 
 D||----------h9----------------------------h12------h10----------| 
 A||-h7----------------------------h9-----------------------------| 
 E||--------------------------------------------------------------| 

Ending: 

 e||--------------------------------------------------| 
 B||--7--0--7--0--7--0--7--0--7--0--7--0--7--0--7--0--| 
 G||--7--0--7--0--7--0--7--0--7--0--7--0--7--0--7--0--| 
 D||----------------------<12>------------------------| 
 A||-------------<12>-----------<12>------------------| 
 E||--0----------------------------------<7>----------| 

 e||--------------------------------------------------| 
 B||--7--0--7--0--7--0--7--0--7--0--7--0--7--0--7--0--| 
 G||--7--0--7--0--7--0--7--0--7--0--7--0--7--0--7--0--| 
 D||----------------------<12>------------0-----------| 
 A||-------------<7>----------------------------------| 
 E||--0----------------------------------------h12----| 

 e||--------------------------------------------------| 
 B||--7--0--7--0--7--0--7--0--7--0--7--0--7--0--7--0--| 
 G||--7--0--7--0--7--0--7--0--7--0--7--0--7--0--7--0--| 
 D||----------------------<12>------------------------| 
 A||-------------<12>-----------<12>------------------| 
 E||-p0----------------------------------<7>----------| 

 e||--------------------------------------------------| 
 B||--7--0--7--0--7--0--7--0--7--0--7--0--7--0--7--0--| 
 G||--7--0--7--0--7--0--7--0--7--0--7--0--7--0--7--0--| 
 D||----------------------<12>------------0-----------| 
 A||-------------<7>----------------------------------| 
 E||--0----------------------------------------h12----| 

 e||--------------------------------------------------| 
 B||--7--0--7--0--7--0--7--0--7--0--7--0--7--0--7--0--| 
 G||--7--0--7--0--7--0--7--0--7--0--7--0--7--0--7--0--| 
 D||----------------------<12>------------------------| 
 A||-------------<12>-----------<12>------------------| 
 E||-p0----------------------------------<7>----------| 

 e||--------------------------------------------------| 
 B||--7--0--7--0--7--0--7--0--7--0--7--0--7--0--7--0--| 
 G||--7--0--7--0--7--0--7--0--7--0--7--0--7--0--7--0--| 
 D||----------------------<12>------------0-----------| 
 A||-------------<7>----------------------------------| 
 E||--0----------------------------------------h12----| 

 e||--------------------------------------------------| 
 B||--7--0--7--0--7--0--7--0--7--0--7--0--7--0--7--0--| 
 G||--7--0--7--0--7--0--7--0--7--0--7--0--7--0--7--0--| 
 D||----------------------<12>------------------------| 
 A||-------------<12>-----------<12>------------------| 
 E||-p0----------------------------------<7>----------| 

 e||--------------------------------------------------| 
 B||--7-----------------------------------------------| 
 G||--7-----------------------------------------------| 
 D||----------------------<12>------------0-----------| 
 A||-------------<7>----------------------------------| 
 E||--0----------------------------------------h12----| 

 e||--------------------------------------------------| 
 B||--------------------------------------------------| 
 G||--------------------------------------------------| 
 D||--------------------------------------------------| 
 A||--------------------------------------------------| 
 E||-p0-----------------------------------------------| 

 
		  

See also:

tabs Deep Purple - Deep Purple - Smoke On The Water tabs Ira! - Vitrine Viva tabs Ira! - Eu Quero Sempre Mais (Com Pitty, intro) tabs Deep Purple - Smoke On The Water (Easy Intro) tabs Deep Purple - Money Talks tabs Deep Purple - Mistreated
e-chords

Other versions:

tabs Andy Mckee - The Friend I Never Met
auto scroll beats size up size down change color hide chords drawings
tab show chords e-chords YouTube Clip e-chords hide all tabs e-chords go to top tab

share