Andy Grammer

home > Andy Grammer

Fresh Eyes Tab

Andy Grammer

Difficulty: nolevelnolevel

by abelamin

tuner correct add songbook print version text version save to e-mail
chordsukulelecavacokeyboardtabbassdrumsharmonicsflute Guitar Pro
chords

Fresh Eyes

  		
verse 1 


e|--------------s--------------s--------------s--------------s---------------| 
B|-------8------s--------7-----s--------------s---------5----s---------------| 
G|--------------s--------------s----------4---s--------------s---------------| 
D|--------------s--------------s--------------s--------------s---------------| 
A|-7--7---------s--5-----------s--------------s---3----------s---------------| 
E|--------------s--------------s--3--3--------s--------------s---------------| 


Pre-Chorus 

e|--------------s--------------s--------------s--------------s---------------| 
B|-------8------s--------7-----s--------------s---------5----s---------------| 
G|--------------s--------------s----------4---s--------------s---------------| 
D|--------------s--------------s--------------s--------------s---------------| 
A|-7--7---------s--5-----------s--------------s---3----------s---------------| 
E|--------------s--------------s--3--3--------s--------------s---------------| 


Chorus 

e|--------------s--------------s--------------s--------------s---------------| 
B|-------8------s--------7-----s--------------s---------5----s---------------| 
G|--------------s--------------s----------4---s--------------s---------------| 
D|--------------s--------------s--------------s--------------s---------------| 
A|-7--7---------s--5-----------s--------------s---3----------s---------------| 
E|--------------s--------------s--3--3--------s--------------s---------------| 


verse 2 

e|--------------s--------------s--------------s--------------s---------------| 
B|-------8------s--------7-----s--------------s---------5----s---------------| 
G|--------------s--------------s----------4---s--------------s---------------| 
D|--------------s--------------s--------------s--------------s---------------| 
A|-7--7---------s--5-----------s--------------s---3----------s---------------| 
E|--------------s--------------s--3--3--------s--------------s---------------| 



Pre-Chorus 2 

e|--------------s--------------s--------------s--------------s---------------| 
B|-------8------s--------7-----s--------------s---------5----s---------------| 
G|--------------s--------------s----------4---s--------------s---------------| 
D|--------------s--------------s--------------s--------------s---------------| 
A|-7--7---------s--5-----------s--------------s---3----------s---------------| 
E|--------------s--------------s--3--3--------s--------------s---------------| 


Chorus 

e|--------------s--------------s--------------s--------------s---------------| 
B|-------8------s--------7-----s--------------s---------5----s---------------| 
G|--------------s--------------s----------4---s--------------s---------------| 
D|--------------s--------------s--------------s--------------s---------------| 
A|-7--7---------s--5-----------s--------------s---3----------s---------------| 
E|--------------s--------------s--3--3--------s--------------s---------------| 



Bridge 

e|--------------s--------------s--------------s--------------s---------------| 
B|------8-------s------10------s-------12-----s--12h13p12----s---------------| 
G|--------------s--------------s--------------s----------12--s---------------| 
D|--------------s--------------s--------------s--------------s---------------| 
A|---7----------s---9----------s---10---------s--------------s---------------| 
E|--------------s--------------s--------------s--------------s---------------| 



Chorus 

e|--------------s--------------s--------------s--------------s---------------| 
B|-------8------s--------7-----s--------------s---------5----s---------------| 
G|--------------s--------------s----------4---s--------------s---------------| 
D|--------------s--------------s--------------s--------------s---------------| 
A|-7--7---------s--5-----------s--------------s---3----------s---------------| 
E|--------------s--------------s--3--3--------s--------------s---------------| 
 
	  

Search Paypal
auto scroll beats size up size down change color hide chords drawings
tab show chords e-chords YouTube Clip e-chords hide all tabs e-chords go to top tab