Andrés Calamaro

home > Andrés Calamaro

El Novio Del Olvido Tab

Andrés Calamaro

Difficulty: nolevelnolevel

by fernsantana

tuner correct add songbook print version text version save to e-mail
chordsukulelecavacokeyboardtabbassdrumsharmonicsflute Guitar Pro
chords

El Novio Del Olvido

(Andrés Calamaro)

  		(Intro) 

Em				      Am    Am/C 
Cuando siento algo diferente dentro de mí,		 
    D			         G    A5     B5 
miro siempre en la dirección donde yo nací      (JUEGO1) 
   B                    	  Em   Em/G   Em 
y si la orientación no me falla hoy, 
    C                     B 
estoy mirándote desde Madrid. (JUEGO 2) 
     C       (e-d#)B           Em 
Desde esta posición estás muy bien. (JUEGO 3) 

(Repite Intro) 

  Em 				     Am   Am/C 
La última vez que nos vimos eramos primos, (JUEGO 4) 
     D			          G   A5   B5 
la próxima vez tal vez seamos extraños. (JUEGO 5) 
   B                       Em     Em/G      Em 
Según pasan los años puede ser que llegue a ser:  
     C           B    
un viejo desconocido.(JUEGO 6) 
C      B         Em 	          C     B           Em 
  El novio del olvido, (JUEGO 7)    El novio del olvido.  

(Repite Intro) 
(Punteo) 
(Repite Intro) 


INTRO: 
E|-|-------6----------------5--|-| 
B|-|----5----5----5-----4------|-| 
G|-|-5----------5----4---------|-| 
D|-|---------------------------|-| 
A|-|---------------------------|-| 
E|-|---------------------------|-| 


JUEGO 1:  
E|-|------------------------------------| 
B|-|--3--1---2---3---------1------------| 
G|-|--0--2---3---4-----0--2---4---------| 
D|-|------------------0------------4----| 
A|-|------------------------------------| 
E|-|------------------------------------| 


JUEGO 2:  
E|-|----------0--2--2---| 
B|-|--4--4--------------| 
G|-|--------------------| 
D|-|--------------------| 
A|-|--------------------| 
E|-|--------------------| 



JUEGO 3:  
E|-|----------------------3----| 
B|-|-----------------0-5-------| 
G|-|-------------0-------------| 
D|-|--2--2--4------------------| 
A|-|---------------------------| 
E|-|---------------------------| 

JUEGO 4:   
E|-|-12-10-8---10-8-7h8p7--------------------|-| 
E|-|---------------------------10-8-7--------|-| 
E|-|------------------------------------9-7--|-| 
E|-|-----------------------------------------|-| 
E|-|-----------------------------------------|-| 
E|-|-----------------------------------------|-| 


JUEGO 5:  
E|-|--------------------------------|-|  
B|-|--3--1---2--3---3--1---2--3-----|-|  
G|-|--0--2---3--4---0--2---3--4-----|-|  
D|-|--------------------------------|-|  
A|-|--------------------------------|-|  
E|-|--------------------------------|-|  

JUEGO 6: 
E|-|-----------------------------------------|-| 
B|-|----------0-1-0----1-0---------1---------|-| 
G|-|-------2---------2--------2--0-----------|-| 
D|-|-1--4------------------------------------|-| 
A|-|-----------------------------------------|-| 
E|-|-----------------------------------------|-| 


JUEGO 7: 
E|-|--2--3--3/5--3--2--0--------|-| 
B|-|----------------------------|-| 
G|-|----------------------------|-| 
D|-|----------------------------|-| 
A|-|----------------------------|-| 
E|-|----------------------------|-| 

PUNTEO: 
        (1:28)    						(1:38) 
E|-|-0-2-3-------------------0-0-0--------------0--------3-5-5/7-10-8-7-5-8-7-5-3-| 
B|-|-------------------------------3--1-0-0h1-0--3-1-0--3-------------------------| 
G|-|------------------------------------------------------------------------------| 
D|-|---------------2-2--0---------------------------------------------------------| 
A|-|-------------2----3--3--------------------------------------------------------| 
E|-|-------0-2-3------------------------------------------------------------------| 

(1:43) 
|-7--5-3p-2p-0-2-h3-h5---7-12-10-7-h8p-7------------------------------------------| 
|-------------------------------------------10-8-7-----------------------2-0------| 
|--------------------------------------------------9-7-5-4-2-0-2--4/5/4-----4-2-1-| 
|---------------------------------------------------------------------------------| 
|---------------------------------------------------------------------------------| 
|---------------------------------------------------------------------------------| 

(1:53)           		            (1:57) 
|-------------------------7------7---7---5---0----2-0-3-0-3/5-3-2-0------7--|-| 
|---------------------5-7------8---8---7---7-------------------------5-7----|-| 
|-------------------4-------------------------------------------------------|-| 
|---------0-1-2-4/5---------------------------------------------------------|-| 
|---0-2-3-------------------------------------------------------------------|-| 
|-4-------------------------------------------------------------------------|-|
	  

Full key step upFull key step up
Half key step upHalf key step up
Half key step downHalf key step down
Full key step downFull key step down
Search Paypal
auto scroll beats size up size down change color hide chords drawings
tab show chords e-chords YouTube Clip e-chords hide all tabs e-chords go to top tab