Andrés Calamaro

home > Andrés Calamaro

Costumbres Argentinas Tab

Andrés Calamaro

Difficulty: EasyEasy

by emergurjao

tuner correct add songbook print version text version save to e-mail
chordsukulelecavacokeyboardtabbassdrumsharmonicsflute Guitar Pro
chords

Costumbres Argentinas

  		Muerdo el ansuelo, Y vuelvo, a empezar de nuevo, cada vez 
e|-0-0-0-0---------------------------0-1-0-0-------1-0--| 
B|---------3-3------3-1-1------1-3-3-------------1------| 
G|------------------------------------------------------| 
D|------------------------------------------------------| 
A|------------------------------------------------------| 
E|------------------------------------------------------| 

Tengo en la mano, una carta, para jugar el juego ,Cuando quieras 
e|-0-0-0-0---------------------------0-1-0-0--------1-0-| 
B|---------3-3------3-1-1------1-3-3--------------1-----| 
G|------------------------------------------------------| 
D|------------------------------------------------------| 
A|------------------------------------------------------| 
E|------------------------------------------------------| 
Caminando caminandote, mil calles que quizas, yo pueda cambiar 
e|-1-1-1-1h3-3-3-3-1-0-----0-1-0-0---------------0-1-0-| 
B|---------------------------------3-1--------1-3-------| 
G|------------------------------------------------------| 
D|------------------------------------------------------| 
A|------------------------------------------------------| 
E|------------------------------------------------------| 
Esperando esperandote, costumbres argentinas de, decir no 
e|-1-1-1-1h3-3-3-3-1-0------0-0-1-0-0--------------0--| 
B|------------------------1---------3-1--------------3--| 
G|-----------------------------------------------------2-| 
D|------------------------------------------------------| 
A|------------------------------------------------------| 
E|------------------------------------------------------| 
El problema es otra vez la situacion cada vez peor..del corazon 
e|-0-0-0-0---------------------------0-1-0------1-0----| 
B|---------3-3-3-----1-3-1-1-----1-3--------3-1--------------| 
G|------------------------------------------------------| 
D|------------------------------------------------------| 
A|------------------------------------------------------| 
E|------------------------------------------------------| 
yo camino todo y veo cada vez que quiero y te espero 
e|-0-0-0-0---------------------------0-1-0-0-------1-0--| 
B|---------3-3---3-1-1------1-3-3----------------1------| 
G|------------------------------------------------------| 
D|------------------------------------------------------| 
A|------------------------------------------------------| 
E|------------------------------------------------------| 
Caminando caminandote, mil calles que quizas, yo pueda cambiar 
e|-1-1-1-1h3-3-3-3-1-0------0-1-0-0---------------0-1-0-| 
B|---------------------------------3-1--------1-3-------| 
G|------------------------------------------------------| 
D|------------------------------------------------------| 
A|------------------------------------------------------| 
E|------------------------------------------------------| 
Esperando esperandote, costumbres argentinas de, decir no 
e|-1-1-1-1h3-3-3-3-1-0------0-1-0-0----------------0-----| 
B|------------------------1---------3-1-------1-3---3----| 
G|---------------------------------------------------2---| 
D|-------------------------------------------------------| 
A|-------------------------------------------------------| 
E|-------------------------------------------------------| 
	  

Search Paypal
auto scroll beats size up size down change color hide chords drawings
tab show chords e-chords YouTube Clip e-chords hide all tabs e-chords go to top tab