André Valadão

Milagre (solo 2)

André Valadão

tabs Beginner beginner

by  MAURICIO_19

save to print version add songbook text version e-mail correct tuner
chordsukulelecavacokeyboardtabbassdrumsharmonicaflute Guitar Pro
close

there isn't a video lesson for this song

chords

Milagre (solo 2)

	  		 
Solo: (02:34) 
 
E|-----------------------------------------------| 
B|-----------------------------------------------| 
G|-----------------------------------------------| 
D|-5h7-7-7~-7/9-7-7-9-9-10-9-10-9-10-10-10-10/12-| 
A|-----------------------------------------------| 
E|-----------------------------------------------| 
 
E|---------------------------| 
B|---------------------------| 
G|---------------------------| 
D|-10-10-12-12-12~--5h7-7-7~-| 
A|---------------------------| 
E|---------------------------| 
 
E|----5-----------------------------------------------| 
B|-------8--------------------------------------------| 
G|-7b9--7--7b9-7-5--5/7-5-----------------------------| 
D|-----------------7------5h7-5---5-5h7-5-------------| 
A|------------------------------7---------7-5-3-0-3/5~| 
E|----------------------------------------------------| 

		  

See also:

tabs Oficina G3 - A Lição tabs Atmosfera de Adoração - Aleluia tabs Fernanda Brum - Espírto Santo tabs Aline Barros - sonda-me, usa-me tabs Lázaro - Eu Te Amo Tanto tabs Oficina G3 - A Lição (versão detalhada)
e-chords

Other versions:

tabs André Valadão - Milagre (correta) tabs André Valadão - Milagre (solo 2) tabs Kleber Lucas - Milagre do Amor tabs Cássia Eller - Milagreiro tabs André Valadão - Milagres tabs André Valadão - Milagres (solo)
auto scroll beats size up size down change color hide chords drawings
tab show chords e-chords YouTube Clip e-chords hide all tabs e-chords go to top tab

share