Alvin Stardust

You You You

Alvin Stardust

tabs

by  AMAN_CLAUDINO

save to print version add songbook text version e-mail correct tuner
chordsukulelecavacokeyboardtabbassdrumsharmonicaflute Guitar Pro
close

there isn't a video lesson for this song

chords

You You You

	  		

Structure; 
C, B, F 
C, B, F 
C, B 
B, C, B, C 

Intro: 
   C                  Bb      F          C                  Bb                 C           Bb     C 
e|------------------|------------------|------------------|------------------|------------------|-----------| 
B|------------------|------------------|------------------|------------------|------------------|-----------| 
G|:3b5-----3b5------|-2b3-------------:|-3b5-----3b5------|-2b3---------2b3--|-3b5---------2b3--|-3b5(hold)-| 
D|:-----------------|---------2b3-----:|------------------|------------------|------------------|-----------| 
A|------------------|------------------|------------------|------------------|------------------|-----------| 
E|------------------|------------------|------------------|------------------|------------------|-----------| 
 

F                        C        C B 
You, you, you, are all I live for 
Bb                    C       F   C 
Cause no one needs you like I do 
       F                           C       C B 
I want you, you, you, cause you I'd die for 
Bb                C        F 
I love you always, love me too 

e|-5---6p5----------| 
B|---------6--------| 
G|-----------5------| 
D|------------------| 
A|------------------| 
E|------------------| 

C                                 F 
Little doll, in my dreams, almost lost you 

          Bb                   F                  C 
e|------|-10-----------12-13-|-10---------12-13-|-15\----| 
B|------|--------------------|------------------|--------| 
G|------|--------------------|------------------|--------| 
D|------|--------------------|------------------|--------| 
A|------|--------------------|------------------|--------| 
E|------|--------------------|------------------|--------| 
But I'll never           go to sleep until you're near 
Oh hoh, oh hohohoh! 
F                        C        C B 
You, you, you, are all I care for 
Bb               C         F   C 
I love you always, love me too, ahum 

Guitar Solo: 
   F                                     C                                B    Bb 
e|------------------|------------------|------------------|------------------|------------------| 
B|------------------|------------------|------------------|------------------|---------11b11b11b| 
G|-10\-----10\------|-10\--------------|-10\--8b-8b-------|------------------|------------------| 
D|------------------|-------13131213---|------------------|------------------|------------------| 
A|------------------|------------------|------------------|------------------|------------------| 
E|------------------|------------------|------------------|------------------|------------------| 
   |   |   |   |      |   |   |   |                         |   |   |   |      |   |   |   |     

   C                  F                  C 
e|------------------|-----11-----------|------------------| 
B|-11---------------|-9b11--11---------|--------------9---| 
G|-------------10---|------------------|-----------11-----| 
D|------------------|------------------|------------------| 
A|------------------|------------------|------------------| 
E|------------------|------------------|------------------| 

   F                                     C                                B    Bb 
e|------------------|------------------|------------------|------------------|------------------| 
B|------------------|------------------|------------------|------------------|---------11b11b11b| 
G|-10\-----10\------|-10\--------------|-10\--8b-8b-------|------------------|------------------| 
D|------------------|-------13131213---|------------------|------------------|------------------| 
A|------------------|------------------|------------------|------------------|------------------| 
E|------------------|------------------|------------------|------------------|------------------| 
   |   |   |   |      |   |   |   |                         |   |   |   |      |   |   |   |     

   C                  F                  C 
e|------------------|------------------|------------------| 
B|-11---------------|-9b11/////////////|/18---------------| 
G|-------------10---|------------------|------------------| 
D|------------------|------------------|------------------| 
A|------------------|------------------|------------------| 
E|------------------|------------------|------------------| 

C                                 F 
Little doll, in my dreams, almost lost you 
Bb                   F                  C 
But I'll never go to sleep until you're near 
Oh hoh, oh hohohoh! 
F                           C        C B 
You, you, you, are what I'd care for 
Bb               C         F 
I love you always, love me too  

Gm 
e|-10-----------12-13-|-10---------------| 
B|--------------------|------------------| 
G|--------------------|------------------| 
D|--------------------|------------------| 
A|--------------------|------------------| 
E|--------------------|------------------| 
Like I do 

Bb               C         F 
I want you always, want me too 

Gm 
e|-10---------12-13-|-15\----| 
B|------------------|--------| 
G|------------------|--------| 
D|------------------|--------| 
A|------------------|--------| 
E|------------------|--------| 
Want me too 

Bb         C 
I'll never find, another girl, like  

F                                   C      C B 
I want you, you, you're the one I'd die for 
Bb                    C                F 
Honey, please, I'm so helpless without you 
F                                   C      C B 
I want you, you, you're the one I'd die for 
Bb              C           F 
I can't help it, so love me too 

Outro: 
   C                  Bb      F          C                  Bb                 F            
e|------------------|------------------|------------------|------------------|------------------| 
B|------------------|------------------|------------------|------------------|------------------| 
G|:3b5-----3b5------|-2b3-------------:|-3b5-------2-3-5--|------------------|------------------| 
D|:-----------------|---------2b3-----:|------------------|-3vv--------------|------------------| 
A|------------------|------------------|------------------|------------------|------------------| 
E|------------------|------------------|------------------|------------------|------------------| 
		  

Full key step upFull key step up
Half key step upHalf key step up
Half key step downHalf key step down
Full key step downFull key step down
auto scroll beats size up size down change color hide chords drawings
tab show chords e-chords YouTube Clip e-chords hide all tabs e-chords go to top tab

share