Alter Bridge

home > Alter Bridge

Poison In Your Veins Tab

Alter Bridge

Difficulty: nolevelnolevel

by jov%2Dcorrea

tuner correct add songbook print version text version save to e-mail
chordsukulelecavacokeyboardtabbassdrumsharmonicsflute Guitar Pro
chords

Poison In Your Veins

  		

D#|-------------------------------------------------------------------------------| 
A#|-------------------------------------------------------------------------------| 
F#|-------------------------------------------------------------------------------| 
C#|-------------------------------------------------------------------------------| 
G#|-------------------------------------------------------------------------------|(Then repeat again) 
C#|-12/15\12-12/17\12-12/15\12-12/17\12-10101010-12121212(x4)-10b(after 4th time)-| 

Myles Intro 
D#|---------------------------------------------------------------------------| 
A#|-------------7(x8)-6(x14 w/slight bend)-8(x10)-1b(x12)---------------------| 
F#|---------------------------------------------------------------------------| 
C#|-0~-0~-0000----------------------------------------------------------------| 
G#|-0~-0~-0000----------------------------------------------------------------| 
C#|-0~-0~-0000----------------------------------------------------------------| 


Verse 

D#|---------------------------------------------------------------------------| 
A#|---------------------------------------------------------------------------| 
F#|---------------------------------------------------------------------------| 
C#|------------------------------12p10----------------------------------------| 
G#|-----------------------------------12p10-12p10-----------------------------| 
C#|-0(x8)-3(x12)5(x10)-10(x12)-------------------12p10------------------------| 

D#|-10(x10)-13(x12)-15(x10)-20b(x15)-| 
A#|----------------------------------| 
F#|----------------------------------| 
C#|----------------------------------| 
G#|----------------------------------| 
C#|----------------------------------| 

Pre-Chorus 

D#|----------------------------------------------| 
A#|----------------------------------------------| 
F#|----------------------------------------------| 
C#|----------------------------------------------| 
G#|------------12-----15b------------12----------| 
C#|-0-0-0-12-13--13-12----0-0-0-12-13--13-12-10b-| 


Chorus 

D#|------------------------| |----------------| 
A#|------------------------| |----------------| 
F#|---------------7--------| |----------------| 
C#|-10-----5------7--------| |-7------11------| 
G#|-10-----5------5(x13)---| |-7------11------|(Before bridge starts) 
C#|-10(x5)-5(x10)----------| |-7(x10)-11(x10)-| 

Bridge 
D#|----------| |-16(x4)-17~-16(x3)-17-14~--16(x3)/19-17(x2)-16(x3)-17-14\-| 
A#|----------| |----------------------------------------------------------| 
F#|----------| |----------------------------------------------------------| 
C#|-000~-00~-| |----------------------------------------------------------| 
G#|-000~-00~-| |----------------------------------------------------------| 
C#|-000~-00~-| |----------------------------------------------------------| 
 
	  

Search Paypal
auto scroll beats size up size down change color hide chords drawings
tab show chords e-chords YouTube Clip e-chords hide all tabs e-chords go to top tab