Almirante Billings

Tranças De Um Rei Careca

Almirante Billings

tabs nolevel nolevel

by  ANG-LETRA

save to print version add songbook text version e-mail correct tuner
chordsukulelecavacokeyboardtabbassdrumsharmonicaflute Guitar Pro
close

there isn't a video lesson for this song

chords

Tranças De Um Rei Careca

	  		Intro 

 
E|-------------------------------------------------------------------------| 
B|-------------------------------------------------------------------------| 
G|-------------------------------------------------------------------------| 
D|----------6-9/12-12-10h12-10-9h10-9-7h9-7-6h7-6-4h6-4-2h4-2-0h2-2h4-2h4~-| x2 
A|--2/7-7-7----------------------------------------------------------------| 
E|-------------------------------------------------------------------------| 
 


Verso - Ponte 

 
E|------------------------------------------------| 
B|------------------------------------------------| 
G|------------------------------------------------| 
D|------------------------9-7-7-7-----------------| x16 
A|--7-7-7-7-9-10-10-10-10-0-0-0-0-10-9-7-7-7-7-7--| 
E|--0-0-0-0-0-0--0--0--0----------0--0-0-0-0-0-0--| 
 


Refrão 

 
E|-------------------------------------------| 
B|-------------------------------------------| 
G|-------------------------------------------| 
D|--2-2-2-2-4-5-5-5-5-9-7-7-7-5-2-2-2-2-2-2--| x8 
A|--2-2-2-2-4-5-5-5-5-9-7-7-7-5-2-2-2-2-2-2--| 
E|--0-0-0-0-2-3-3-3-3-7-5-5-5-3-0-0-0-0-0-0--| 
 


Solo 

 
E|----------------------------------------|-----------------------------------------| 
B|----------------------------------------|-----------------------------------------| 
G|----------------------------------------|--4-x-x-x-x-4-x-x-x-x-4-x-x-x-x-4--------| 
D|--2-x-x-x-x-2-x-x-x-x-2-x-x-x-x-2-------|--4-x-x-x-x-4-x-x-x-x-4-x-x-x-x-4--------| 
A|--2-x-x-x-x-2-x-x-x-x-2-x-x-x-x-2-------|--2-x-x-x-x-2-x-x-x-x-2-x-x-x-x-2-2------| 
E|--0-x-x-x-x-0-x-x-x-x-0-x-x-x-x-0-0-3-5-|------------------------------------5-3--| 
 

 
E|----------------------------------------|--------------------------------------------------------| 
B|----------------------------------------|--------------------------------------------------------| 
G|----------------------------------------|--4--x-4-x-4-x-5--x-5-x-5-x-7--x-7-x-7-x-7-x-9--x-9-x-9-| 
D|--2-x-x-x-x-2-x-x-x-x-2-x-x-x-x-2-------|-----x---x---x----x---x---x----x---x-x-x-x-x----x---x---| 
A|--2-x-x-x-x-2-x-x-x-x-2-x-x-x-x-2-------|--2--x-2-x-2-x-3--x-5-x-3-x-5--x-5-x-5-x-5-x-7--x-7-x-7-| 
E|--0-x-x-x-x-0-x-x-x-x-0-x-x-x-x-0-0-3-5-|--------------------------------------------------------| 
 

 
E|-------------------------7-7-7---7-7-7h10/12-12-12-12-10-8-8-8-10-7-7-7-8-7-7-7-7-| 
B|------------7-8-8-8-8-10-------8--------------------------------------------------| 
G|--9-9-9-9-9-----------------------------------------------------------------------| 
D|----------------------------------------------------------------------------------| 
A|----------------------------------------------------------------------------------| 
E|----------------------------------------------------------------------------------| 
 

 
E|-------------------------7-7-7---7-7-7h10/12-12-12-12-10-8-8-8-10-7-7-7-8-7--------|--------| 
B|------------7-8-8-8-8-10-------8--------------------------------------------10-8-7-|--------| 
G|--9-9-9-9-9------------------------------------------------------------------------|--7/9~--| 
D|-----------------------------------------------------------------------------------|--------| 
A|-----------------------------------------------------------------------------------|--------| 
E|-----------------------------------------------------------------------------------|--------| 
 


Verso - Ponte 

 
E|------------------------------------------------| 
B|------------------------------------------------| 
G|------------------------------------------------| 
D|------------------------9-7-7-7-----------------| x16 
A|--7-7-7-7-9-10-10-10-10-0-0-0-0-10-9-7-7-7-7-7--| 
E|--0-0-0-0-0-0--0--0--0----------0--0-0-0-0-0-0--| 
 

Solo Final 

 
E|---------------------7--------------------------| 
B|----------7-8~-8-8-8--10~-10-10-8-7~------------| 
G|--9~-9-9-9---------------------------7~-7/9~----| 
D|------------------------------------------------| 
A|------------------------------------------------| 
E|------------------------------------------------| 
		  

See also:

tabs Cássia Eller - Malandragem (Acoustic) tabs Legião Urbana - Tempo Perdido(solo inicial ver.) tabs Detonautas - Outro lugar tabs Barão Vermelho - O Tempo Não Pára tabs Engenheiros do Hawaii - Pra ser sincero ( ver. 2) tabs Barão Vermelho - Por Que a Gente é Assim
e-chords

Other versions:

tabs Almirante Billings - Tranças De Um Rei Careca
auto scroll beats size up size down change color hide chords drawings
tab show chords e-chords YouTube Clip e-chords hide all tabs e-chords go to top tab

share with facebook