All For One

Resistance

All For One

tabs

by  ALYSLIMA

save to print version add songbook text version e-mail correct tuner
chordsukulelecavacokeyboardtabbassdrumsharmonicaflute Guitar Pro
close

there isn't a video lesson for this song

chords

Resistance

	  		 

Riff 1 
e|---------------------------------------------------------------------------| 
B|---------------------------------------------------------------------------| 
G|---------------------------------------------------------------------------| 
D|---------------------------------------------------------------------------| 
A|-8p0-------------8p0---10p0---7p0-8p0-------------8p0---12p0---7p0-8p0-----| 
E|-----000-000-000-----0------0---------000-000-000-----0------0-------------| 
PM     ... ... ...     .      .         ... ... ...     .      .   

e|---------------------------------------------------------------------------| 
B|---------------------------------------------------------------------------| 
G|---------------------------------------------------------------------------| 
D|-------------------------------------------------------7-8-7-11------------| 
A|-------------8p0---10p0---7p0-8p0-------------7-8-7-10---------------------| 
E|-000-000-000-----0------0---------000-000-000------------------------------| 
PM ... ... ...     .      .         ... ... ... . . . . 

Riff 2 
e|---------------------------------------------------------------------------| 
B|---------------------------------------------------------------------------| 
G|---------------------------------------------------------------------------| 
D|---------------------------------------------------------------------------| 
A|-8p0-------------8p0---10p0---7p0-8p0-------------8p0---12p0---7p0-8p0-----| 
E|-----0-0-0-0-0-0-----0------0---------0-0-0-0-0-0-----0------0-------------| 
PM     . . . . . .     .      .         . . . . . .     .      . 

e|---------------------------------------------------------------------------| 
B|---------------------------------------------------------------------------| 
G|---------------------------------------------------------------------------| 
D|-------------------------------------------------------7-8-7-11------------| 
A|-------------8p0---10p0---7p0-8p0-------------7-8-7-10---------------------| 
E|-0-0-0-0-0-0-----0------0---------0-0-0-0-0-0------------------------------| 
Pm . . . . . .     .      .         . . . . . . . . . .  

Pre-Chorus 
e|---------------------------------------------------------------------------| 
B|---------------------------------------------------------------------------| 
G|-10-10-10-12--9-9-9-10-----------------------------------------------------| 
D|--x--x--x--x--x-x-x-x----------3---------5-----7----------8---------7-----5| 
A|--8--8--8-10--7-7-7-8----------5---------7-----8---------10---------8-----7| 
E|-----------------------000-000---000-000---000---000-000----000-000---000--| 
PM                       ... ...   ... ...   ...   ... ...    ... ...   ... 

e|---------------------------------------------------------------------------| 
B|---------------------------------------------------------------------------| 
G|-10-10-10-12--9-9-9-6------------------------------5-5-5-5-----------------| 
D|--x--x--x--x--x-x-x-x---0-0-0-0--7-7-7-7--3-3-3-3--5-5-5-5-----------------| 
A|--8--8--8-10--7-7-7-4---0-0-0-0--7-7-7-7--3-3-3-3--3-3-3-3-----------------| 
E|------------------------0-0-0-0--7-7-7-7--3-3-3-3--------------------------| 




Chorus 
e|---------------------------------------------------------------------------| 
B|---------------------------------------------------------------------------| 
G|----------------------------5-5-5-5----------------------------------------| 
D|-0-0-0-0--7-7-7-7--3-3-3-3--5-5-5-5----------------------------------------| 
A|-0-0-0-0--7-7-7-7--3-3-3-3--3-3-3-3----------------------------------------| 
E|-0-0-0-0--7-7-7-7--3-3-3-3-------------------------------------------------| 

Bridge 
e|---------------------------------------------------------------------------| 
B|---------------------------------------------------------------------------| 
G|---------------------------------------------------------------------------| 
D|---------------------------------------------------------------------------| 
A|-8---8---8h10--7---8---8p7--0----------------------------------------------| 
E|-8-8---8-------7-7---7------0-000-000-000-000-000-000----------------------| 
PM   .   .         .   .        ... ... ... ... ... ... 

Bridge 2 
e|---------------------------------------------------------------------------| 
B|---------------------------------------------------------------------------| 
G|---------------------------------------------------------------------------| 
D|---------------------------------------------------------------------------| 
A|-8---8---8h10--7---8---8p7--0--10---10h12--10----13----13p12-8--8-8-7--7-7-| 
E|-8-8---8-------7-7---7------0-0---0--------10-10----10-------8-8-8--7-7-7--| 
Pm   .   .         .   .        .   .            .     .         . .    . .     

Guitar Solo 
e|----------------------------------------|----------------------------------| 
B|----------------------------------------|----------------------------------| 
G|----------------------------------------|----------------------------------| 
D|----------------------------------------|----------------------------------| 
A|-0-0-0-0-7-7-7-7-8-8-8-8-10-10-10-10----|-8-8-7-7-12-12-10-10--------------| 
E|-0-0-0-0-7-7-7-7-8-8-8-8-10-10-10-10-x2-|-8-8-7-7-12-12-10-10-x4-----------| 

Post-Solo (Under Bridge Riff) 
e|---------------------------------------------------------------------------| 
B|---------------------------------------------------------------------------| 
G|---------------------------------------------------------------------------| 
D|---------------------------------------------------------------------------| 
A|-8------7-----12----10----8-8-8-8-8-8-8-8-7--------------------------------| 
E|-8------7-----12----10----8-8-8-8-8-8-8-8-7--------------------------------| 
Pm                          . . . . . . . . . 




************************************ 

| /   slide up 
| \   slide down 
| h   hammer-on 
| p   pull-off 
| ~   vibrato 
| +   harmonic 
| x   Mute note 
| b   Bend 
| pb  Pre-bend 
| br  Bend release 
| pbr Pre-bend release 
| brb Bend release bend 

************************************ 
		  

See also:

tabs Deep Purple - Smoke on the water (ver. 3) tabs Albert Hammond Jr - Holiday tabs Deep Purple - When a Blind man cries tabs Deep Purple - The Unwritten Law tabs Deep Purple - Highway Star tabs Ira! - Núcleo Base ( Acústico MTV)
e-chords

Other versions:

tabs All For One - Resistance
auto scroll beats size up size down change color hide chords drawings
tab show chords e-chords YouTube Clip e-chords hide all tabs e-chords go to top tab

share