Aline Barros

home > Aline Barros

Caminho de Milagres Tab

Aline Barros

Difficulty: nolevelnolevel

by Teusalves

tuner correct add songbook print version text version save to e-mail
chordsukulelecavacokeyboardtabbassdrumsharmonicsflute Guitar Pro
chords

Caminho de Milagres

Year: 2007 - Album: Caminho de Milagres: ao Vivo

  		E------------------------------------------------  
B-8/10-10v-10-13-12v-----------------------------  
G--------------------12-10-12b14v-9h10p9---------  
D----------------------------------------12------  
A------------------------------------------------  
E------------------------------------------------  

E------------------------------------------------  
B------------------------------------------------  
G-10-9----------------------5-7-9-7-9-10-9-10-12-  
D------12-10-9h10p9------------------------------  
A-------------------10\7-7v----------------------  
E------------------------------------------------  

E------------------------------------------------  
B----------------12-13-12v-10/12-13-15--15b17----  
G-10-12-14-12-14---------------------------------  
D------------------------------------------------  
A------------------------------------------------  
E------------------------------------------------  

E-15-----------------------15--------------17-17v  
B-17-13v-10/12-13-15-15b17-17-15v-15-13-14-------  
G------------------------------------------------  
D------------------------------------------------  
A------------------------------------------------  
E------------------------------------------------  

E-13-15-17-15-13----------15-13-12---------------  
B----------------17-15-13----------15-13-12------  
G------------------------------------------------  
D------------------------------------------------  
A------------------------------------------------  
E------------------------------------------------  

E-13-12-10----------13-12-10--------------------------  
B----------13-12-10----------13-12-10-----------------  
G-------------------------------------12-10-9-12-10-9-  
D-----------------------------------------------------  
A-----------------------------------------------------  
E-----------------------------------------------------  

E-----------------------------------------------------  
B-----------------------------------------------------  
G-----------------------------------------------------  
D-12-10-9-12-10-9/7-10-9-7----------------------------  
A-------------------------10-8-7-------------7-8-10---  
E--------------------------------10-8-7h8h10----------  

E-----------------------------------------------------  
B-----------------------------------------------------  
G---------9-10-12v------------------------------------  
D-9-10-12---------------------------------------------  
A-----------------------------------------------------  
E----------------------------------------------------- 
	  

Search Paypal
auto scroll beats size up size down change color hide chords drawings
tab show chords e-chords YouTube Clip e-chords hide all tabs e-chords go to top tab