Alexey Omelchuk

Redemption Metro Last Light

Alexey Omelchuk

tabs Easy easy

by  VICTBORGES

save to print version add songbook text version e-mail correct tuner
chordsukulelecavacokeyboardtabbassdrumsharmonicaflute Guitar Pro
close

there isn't a video lesson for this song

chords

Redemption Metro Last Light

	  		The song that plays when you get the good ending in Metro: Last light 
This song has two guitars playing but this sounds good as one 

E|-----------0---------|---------------------|---------------------|--------------------------| 
B|----------------0----|-1--------------3----|-1--------------3----|-1----0H1P0---------------| 
G|---------------------|---------------------|-----------0---------|----------------2----0----| 
D|------2--------------|-----------3---------|------0--------------|------0-------------------| 
A|-0-------------------|------3--------------|---------------------|--------------------------| 
E|---------------------|-1-------------------|-3-------------------|-3------------------------| 


E|-----------0---------|-----------------------|-----------------------|---------------------| 
B|----------------0----|-1---------------1--3--|-1---------------1--3--|-1----0----1----3----| 
G|---------------------|-----------------------|-----------0-----------|---------------------| 
D|------2--------------|-----------3-----------|------0----------------|------0--------------| 
A|-0-------------------|------3----------------|-----------------------|---------------------| 
E|---------------------|-1---------------------|-3---------------------|-3-------------------| 


E|-----------3---------|-1----0--------------|-----------0-----|--------------------------| 
B|---------------------|-----------3---------|-----------------|-3----1H3P1-----0---------| 
G|----------------0----|----------------2----|-----------------|---------------------0----| 
D|------2--------------|-0-------------------|------3----------|------0-------------------| 
A|-3-------------------|---------------------|-----------------|--------------------------| 
E|---------------------|---------------------|-1---------------|-3------------------------| 


E|--------------------|--------|-----------0---------|------------------------|--------------------| 
B|-0H-1---------------|--------|-----------1----0----|-1--------------1H3-----|-1--------------1H3-| 
G|---------2----------|--------|-----------2----0----|-2--------------2-------|-0--------------0---| 
D|--------------------|--------|------2--------------|-----------3------------|-----------0--------| 
A|-0------------------|--------|-0-------------------|------3-----------------|------2-------------| 
E|--------------------|--------|---------------------|-1----------------------|-3------------------| 


E|---------------------|-----------0---------|------------------------|------------------------| 
B|-1----0--------------|-----------1----0----|-1--------------1H3-----|-1--------------1H3-----| 
G|-0---------2----0----|-----------2----0----|-2--------------2-------|-0--------------0-------| 
D|------0---------0----|------2--------------|-----------3------------|-----------0------------| 
A|---------------------|-0-------------------|------3-----------------|------2-----------------| 
E|-3---------3---------|---------------------|-1----------------------|-3----------------------| 


E|---------------------|-0---------3---------|-1----0H1P0---------------|-----------0-----| 
B|-1----0----1----3----|-1---------1---------|-3----3---------3---------|-----------1-----| 
G|-0----0----0----0----|-----------0---------|-2-------------------2----|-----------------| 
D|------0---------0----|-2----2---------2----|-0------------------------|------3----------| 
A|---------------------|-3-------------------|--------------------------|-----------------| 
E|-3---------3---------|---------------------|--------------------------|-1---------------| 


E|---------------------|--------------------|--------| 
B|-3----1----0---------|-0H1----------------|--------| 
G|-0--------------0----|-2-------2----------|--------| 
D|------0--------------|-2------------------|--------| 
A|---------------------|-0------------------|--------| 
E|-3-------------------|--------------------|--------| 
		  

See also:

tabs Deep Purple - Sometimes a Feel Like Screaming tabs Deep Purple - Mistreated tabs Deep Purple - Smoke on the Water (ver. 2) tabs Ira! - Vitrine Viva tabs Doa - Sexyest Girl tabs Deep Purple - Ted The Mechanic
e-chords

Other versions:

tabs Alexey Omelchuk - Redemption Metro Last Light
auto scroll beats size up size down change color hide chords drawings
tab show chords e-chords YouTube Clip e-chords hide all tabs e-chords go to top tab

share with facebook