Alesana

Hand In Hand With The Damned Tab

Alesana

Difficulty: nolevelnolevel

by brunblazkowski

tuner correct add songbook print version text version save to e-mail
chordsukulelecavacokeyboardtabbassdrumsharmonicsflute Guitar Pro
close

there isn't a video lesson for this song

chords

Hand In Hand With The Damned

  		
Intro:
 
e||--------------------------|| 
B||--------------------------||     
G||--------------7777--------|| 
D||----88888888--77777777----||  
A||----88888888--55557777----|| 
D||----88888888------7777----|| 

Verse:
 
e||----------------------------------------------|| 
B||----------------------------------------------||     
G||------------------------33333333--55555555----||
D||----77777777--77777777--33333333--55555555----|| 
A||----xxxxxxxx--xxxxxxxx--11111111--33333333----||
D||----77777777--77777777------------------------|| 

e||----------------|| 
B||----------------|| 
G||----------------|| 
D||----0-0-0-xx----|| 
A||----0-0-0-xx----|| 
D||----0-0-0-xx----|| 

Chorus:
 
e||--------------------------|| 
B||--------------------------||     
G||--------------7777--------||  
D||----88888888--77777777----|| 
A||----88888888--55557777----|| 
D||----88888888------7777----|| 

e||---------------------|| 
B||---------------------|| 
G||-------7-9-10-9-7----|| 
D||----7----------------|| 
A||----7----------------|| 
D||----7----------------|| 

e||----------------------------------------------|| 
B||----------------------------------------------|| 
G||----33-x-55-x-7777777---33-x-53-x-66666666----|| 
D||----33-x-55-x-7777777---33-x-53-x-77777777----|| 
A||----11-x-33-x-5555555---11-x-33-x-44444444----|| 
D||----------------------------------------------|| 

e||----------------------------------------|| 
B||----------------------------------------|| 
G||----33-x-55-x-77-x-55---33333333--------|| 
D||----33-x-55-x-77-x-55---33333333--0~----|| 
A||----11-x-33-x-55-x-33---11111111--0~----|| 
D||----------------------------------0~----|| 

e||-------------------------------------------|| 
B||-------------------------------------------|| 
G||-------------------------------------------|| 
D||-------------------------------88887777----|| 
A||----55555555-77777777-88888888-------------|| 
D||-------------------------------------------|| 

Verse:
 
e||----------------------------------------------|| 
B||----------------------------------------------||     
G||------------------------33333333--55555555----||  
D||----77777777--77777777--33333333--55555555----|| 
A||----xxxxxxxx--xxxxxxxx--11111111--33333333----|| 
D||----77777777--77777777------------------------|| 

e||----------------|| 
B||----------------|| 
G||----------------|| 
D||----0-0-0-xx----|| 
A||----0-0-0-xx----|| 
D||----0-0-0-xx----|| 

Chorus:
 
e||--------------------------|| 
B||--------------------------||     
G||--------------7777--------||  
D||----88888888--77777777----||  
A||----88888888--55557777----|| 
D||----88888888------7777----|| 

Bridge:
 
(It's just some plucking of these chords. I think.) 
e||-------------------------------------------|| 
B||----6---------5---------1---------5---6----||     
G||----7---------5---------3---------5---6----||   
D||----7---------5---------3---------5---7----||  
A||----5---------3---------1---------3---4----|| 
D||-------------------------------------------|| 

e||----------------------------------------------|| 
B||----------------------------------------------||      
G||----77777777--55555555--33333333--55556666----||   
D||----77777777--55555555--33333333--55557777----||  
A||----55555555--33333333--11111111--33334444----|| 
D||----------------------------------------------|| 

e||----------------|| 
B||----------------|| 
G||----------------|| 
D||----0-0-0-xx----|| 
A||----0-0-0-xx----|| 
D||----0-0-0-xx----|| 

Chorus:
 
e||--------------------------|| 
B||--------------------------||     
G||--------------7777--------|| 
D||----88888888--77777777----||  
A||----88888888--55557777----|| 
D||----88888888------7777----|| 

e||---------------------|| 
B||---------------------|| 
G||-------7-9-10-9-7----|| 
D||----7----------------|| 
A||----7----------------|| 
D||----7----------------|| 

e||----------------------------------------------|| 
B||----------------------------------------------|| 
G||----33-x-55-x-7777777---33-x-53-x-77777777----|| 
D||----33-x-55-x-7777777---33-x-53-x-77777777----|| 
A||----11-x-33-x-5555555---11-x-33-x-44444444----|| 
D||----------------------------------------------|| 

e||----------------------------------------|| 
B||----------------------------------------|| 
G||----33-x-55-x-77-x-55---33333333--------|| 
D||----33-x-55-x-77-x-55---33333333--0~----|| 
A||----11-x-33-x-55-x-33---11111111--0~----|| 
D||----------------------------------0~----|| 

e||-------------------------------------------|| 
B||-------------------------------------------|| 
G||-------------------------------------------|| 
D||-------------------------------88887777----|| 
A||----55555555-77777777-88888888-------------|| 
D||-------------------------------------------|| 

 
	  

auto scroll beats size up size down change color hide chords drawings
tab show chords e-chords YouTube Clip e-chords hide all tabs e-chords go to top tab

share with facebook

Search Paypal