Alejandro Marcovich

Gracias A La Vida Tab

Alejandro Marcovich

Difficulty: BeginnerBeginner

by gustsilva

tuner correct add songbook print version text version save to e-mail
chordsukulelecavacokeyboardtabbassdrumsharmonicsflute Guitar Pro
close

there isn't a video lesson for this song

request
chords

Gracias A La Vida

(Violeta parra)

  		Bueno esta canción está bien chida, pero ya la saqué y está casi perfecta 
y digo casi porque nada en la vida es perfecto, pero es de muy buen nivel 
espero que la disfruten los que la conozcan. 
Para Jasmin, y espero que sea muy feliz donde quiera que se encuentre... 
  A5 
 Gracias a la vida que me ha dado tanto 
 me dio dos luceros que cuando los abro 
 perfecto distingo lo negro del blanco 
 y en el alto cielo su fondo estrellado 
 y en las multitudes el hombre que yo amo. 
  A5 
 Gracías a la vida que me ha dado tanto 
 me ha dado el oido que en todo su ancho 
 graba noche y día grillos y canarios, 
 martillos, turbinas, ladridos, chubascos 
 y la voz tan tierna de mi bien amado. 
e|--------------5-3-------------- 
B|--5-5-5-3-5-1-5-3-5-5-5-3-5-1-- 
G|--5-5-5-4-5-2-----5-5-5-4-5-2-- 
D|------------------------------- 
               E7                  Am 
 Gracías a la vida que me ha dado tanto 
e|---------------------------------------- 
B|--------5--------5--------5--------5---- 
G|----4-----4--4-----4--5-----5--5-----5-- 
D|--6---6--------6--------7--------7------ 
A|---------------------------------------- 
                  G              C 
 me ha dado el sonido y el abecedario 
e|-------------------------------------- 
B|------5--------5--------5--------5---- 
G|--4-----4--4-----4--5-----5--5-----5-- 
D|----5--------5--------5--------5------ 
A|-------------------------------------- 
              C7                       F 
 con el las palabras que pienso hoy declaro 
e|-------------------------------------- 
B|------5--------5--------5--------5---- 
G|--3-----3--3-----3--5-----5--5-----5-- 
D|----5--------5--------7--------7------ 
A|-------------------------------------- 
                 E7               Am 
 madre, amigo, hermano, y nos alumbrando 
e|-------------------------------------- 
B|------5--------3--------5--------5---- 
G|--4-----4--4-----4--5-----5--5-----5-- 
D|----6--------6--------7--------7------ 
A|-------------------------------------- 
            E7                    Am 
 la ruta del alma del que estoy amando 
e|-------------------------------------- 
B|------5--------3--------5--------5---- 
G|--4-----4--4-----4--5-----5--5-----5-- 
D|----6--------6--------7--------7------ 
A|-------------------------------------- 

e|--8-6-5h6-5h6h5----------- 
B|--8-6-5h6-5h6h5-/5-3-1-1-- 
G|----------------/5-4-2-2-- 
D|-------------------------- 
               E7                  Am 
 Gracías a la vida que me ha dado tanto 
e|---------------------------------------- 
B|--------5--------5--------5--------5---- 
G|----4-----4--4-----4--5-----5--5-----5-- 
D|--6---6--------6--------7--------7------ 
A|---------------------------------------- 
               G                  C 
 me ha dado la marcha de mis pies cansados 
e|-------------------------------------- 
B|------5--------5--------5--------5---- 
G|--4-----4--4-----4--5-----5--5-----5-- 
D|----5--------5--------5--------5------ 
A|-------------------------------------- 
              C7               F 
 con ellos anduve ciudades y charcos, 
e|-------------------------------------- 
B|------5--------5--------5--------5---- 
G|--3-----3--3-----3--5-----5--5-----5-- 
D|----5--------5--------7--------7------ 
A|-------------------------------------- 
                 E7              Am 
 playas y desiertos, montañas y llanos, 
e|-------------------------------------- 
B|------5--------3--------5--------5---- 
G|--4-----4--4-----4--5-----5--5-----5-- 
D|----6--------6--------7--------7------ 
A|-------------------------------------- 
           E7                   Am 
 ir a casa tuya, tu calle y tu patio 
e|-------------------------------------- 
B|------6--------5--------5--------5---- 
G|--4-----4--4-----4--5-----5--5-----5-- 
D|----6--------6--------7--------7------ 
A|-------------------------------------- 

e|----5-7/8---3/5------------ 
B|--5-------5-----5-3/5------ 
G|----------------------7---- 
D|------------------------7-- 
A|--------------------------- 
               E7                  Am 
 Gracías a la vida que me ha dado tanto 
e|---------------------------------------- 
B|--------5--------3--------5--------5---- 
G|----4-----4--4-----4--5-----5--5-----5-- 
D|--6---6--------6--------7--------7------ 
A|---------------------------------------- 
            G                C 
 me dió corazón que agita su marco 
e|-------------------------------------- 
B|------5--------5--------5--------5---- 
G|--4-----4--4-----4--5-----5--5-----5-- 
D|----5--------5--------5--------5------ 
A|-------------------------------------- 
            C7                  F 
 cuando miro el fruto verse derrumbado 
e|-------------------------------------- 
B|------5--------5--------5--------5---- 
G|--3-----3--3-----3--5-----5--5-----5-- 
D|----5--------5--------7--------7------ 
A|-------------------------------------- 
            E7                      Am 
 cuando miro el bueno tan lejos del malo 
e|-------------------------------------- 
B|------5--------3--------5--------5---- 
G|--4-----4--4-----4--5-----5--5-----5-- 
D|----6--------6--------7--------7------ 
A|-------------------------------------- 
            E7                     Am 
 cuando miro el fondo de tus ojos claros 
e|---------------------------------------- 
B|--------5--------5--------5--------5---- 
G|----4-----4--4-----4--5-----5--5-----5-- 
D|--6---6--------6--------7--------7------ 
A|---------------------------------------- 

e|--------------------- 
B|--5p3-5-7---3/5-5---- 
G|----------5-------5-- 
D|--------------------- 
               E7                  Am 
 Gracías a la vida que me ha dado tanto 
e|---------------------------------------- 
B|--------5--------3--------5--------5---- 
G|----4-----4--4-----4--5-----5--5-----5-- 
D|--6---6--------6--------7--------7------ 
A|---------------------------------------- 

e|------------- 
B|--6-5-3-3h5-- 
G|------------- 
             G                        C 
 me ha dado la risa y me ha dado el llanto 
e|-------------------------------------- 
B|------5--------5--------5--------5---- 
G|--4-----4--4-----4--5-----5--5-----5-- 
D|----5--------5--------5--------5------ 
A|-------------------------------------- 

e|----------- 
B|--3h5-3---- 
G|--------5-- 
D|----------- 
           C7                 F 
 asi yo distingo dicha de quebranto 
e|-------------------------------------- 
B|------5--------5--------5--------5---- 
G|--3-----3--3-----3--5-----5--5-----5-- 
D|----5--------5--------7--------7------ 
A|-------------------------------------- 

e|--8--------------------------------- 
B|----10^10-8h10-8-5-8h6h5-8h6h5------ 
G|-------------------------------7-5-- 
D|------------------------------------ 
              E7                   Am 
 los dos materiales que forman mi canto 
e|---------------------------------------- 
B|--------6--------5--------5--------5---- 
G|----4-----4--4-----4--5-----5--5-----5-- 
D|--6---6--------6--------7--------7------ 
A|---------------------------------------- 

e|--10/12-------12-----------10----- 
B|--------12-13-----13p12-13----13-- 
G|---------------------------------- 
              E7                        Am 
 y el canto de ustedes que es el mismo canto 
e|---------------------------------------- 
B|--------5--------3--------5--------5---- 
G|----4-----4--4-----4--5-----5--5-----5-- 
D|--6---6--------6--------7--------7------ 
A|---------------------------------------- 

e|------------------ 
B|--12p10-12-13-10-- 
G|------------------ 
              E7 
 y el canto de todos que es mi propio canto 
e|---------------------------------------------- 
B|--------5--------3-------5-------6-------6---- 
G|----4-----4--4-----4-4-----4-4-----4-4-----4-- 
D|--6---6--------6-------6-------6-------6------ 
A|---------------------------------------------- 

e|--4-7-5-7--10-13-12-13-13----12-8-/10-10-8--- 
B|--5-9-7-9--12-15-14-15-15----14-10/12-12-10-- 
G|--------------------------------------------- 

e|------------------------------------------- 
B|-------10--------10--------10--------10---- 
G|--9-------9-9-------9-9-------9-9-------9-- 
D|----10--------10--------11--------11------- 
A|------------------------------------------- 

e|--12-8-/10-8--10-8--- 
B|--14-10/12-10-12-10-- 
G|--------------------- 
 Gracías a la vida que me ha dado tanto. 
e|------------------------------------------- 
B|-------10--------10--------10--------10---- 
G|--9-------9-9-------9-9-------9-9-------9-- 
D|----10--------10--------11--------11------- 
A|------------------------------------------- 

e|--12-8-/10-8--10-8----12-8-/10-8--10-8---8-/10-8-/10-8--- 
B|--14-10/12-10-12-10---14-10/12-10-12-10--10/12-10/12-10-- 
G|--------------------------------------------------------- 
Solo: 
e|--------------------------------15----15----17-15-17-15-19^-17-19-21^---- 
B|----------5---5-7-8~8h7h5---5-17---17----17--------------------------20-- 
G|----4h5h7---7-------------7---------------------------------------------- 
D|--7---------------------------------------------------------------------- 
A|------------------------------------------------------------------------- 
 Gracías a la vida que me ha dado tanto. 
e|-------------------------------------------------------------------------------------9~~ 
B|--/8-8p7h5-7p5---5-5-----7^-5---5-5---------------------------------10-10/-/12~10-12---- 
G|---------------7-----7h9------7-----/9-7-9-5-7-4-5---4---4---7-5-11--------------------- 
D|---------------------------------------------------7---7---7---------------------------- 
A|----------------------------------------------------------------------------------------
	  

Full key step upFull key step up
Half key step upHalf key step up
Half key step downHalf key step down
Full key step downFull key step down
Search Paypal
auto scroll beats size up size down change color hide chords drawings
tab show chords e-chords YouTube Clip e-chords hide all tabs e-chords go to top tab

share with facebook