Alejandro Filio

home > Alejandro Filio

Pudo Ser Tab

Alejandro Filio

Difficulty: nolevelnolevel

by JESSBT

tuner correct add songbook print version text version save to e-mail
chordsukulelecavacokeyboardtabbassdrumsharmonicsflute Guitar Pro
chords

Pudo Ser

(Alejandro filio)

  		Así es aquí tenemos la tablatura de pudo ser 
Con todos sus arreglos. Esta canción me la 
Pidió un amigo llamado Miguel Martinez Bautista pues le gusto 
como Saque el tab. de cuentos compartidos  así que aquí la tienes. 

Dedicada para cualquiera que haya tenido alguien especial 
Como todos, y que no entendiera el canto de amor que 
Se le dedicaba y este canto le hiciera soñar fura de la 
Realidad como el que la dedica y solo quede en pudo ser, 
Por que el verdadero canto hacia otra persona se debe escucha 
con el corazón… 

Importante lleva capo en el 1er traste 

Intro… 

    D/F#     G                 D/F#     G               Bm 
E---2----2---3-----------------2----2---3---------------------------| 
A-------------------------------------------------------2-----------| 
D--------------------------------------------------------4----------| 
G----2-2-2---0-----------2h0----2-2-2---0----------2h0----4-----4---| 
B------3-3---0—2h3—3h2h0----------3-3---0—2h3—3h2h0---------0h3---3-| 
e-----------------0--------------------------0-----------------2----| 

     A                   G                F#/D     G 
E----------------------3--3--3--3-3-3-3----2----2--3-----| 
A----0---------------------------------------------------| 
D--------------------------------------------------------| 
G----2----------2-0----0--0--0--------------2-2-2--0-----| 
B----2-2h3-3h2h0-------0--2--3--3-3-3-0-------3-3--0-----| 
e---------0---------------------3-2-0-0------------------| 
                                              Pudo ser 
      G 
E-----3--3---3--3--3-3-----2----2--3-----| 
A----------------------------------------| 
D----------------------------------------| 
G-----0--0------------------2-2-2--0-----| 
B-----2--3---3—3---3--0-------3-3--0-----| 
e------------3-2---0--0------------------| 
  Que montada a la noche viajó 

      G     Bm 
E--3--------------------------| 
A-------------2---------------| 
D--------------4--------------| 
G---0-0---------4-------------| 
B----0-----—-----2h3----------| 
e---------------------2-------| 
 Desafiando a la imaginación 

    A                G 
E---------------3--3---3---3-----| 
A---0----------------------------| 
D--------------------------------| 
G----2--------------0---0---0-----| 
B-----0h2----—-----3---2---0-----| 
e--------0-----------------------| 
  Pudo ser o tal vez despertó 

   G                 D/F#           C 
E--3---3-------------2------2---------------------| 
A---------------------------------0h2-3-----------| 
D-------------------------------------------------| 
G--0---0------2h0------2-----2----------0----0-0--| 
B--3---3—3h1h0-—---------3---3------------1---1---| 
e--3---2-----------------------------------0------| 
Justo tras de una puesta de sol 


  C                  D        D/F# G 
E--------------------------0---2--3----------| 
A--3----------0------------------------------| 
D---2-----------2----0-----------------------| 
G----0--0--------2----2-----------0-0-0------| 
B-----1-—---------2----3/5-5---3--0--0-------| 
e----------------------3/5-5-----------------| 
 esta ingenua canción             Pudo mas 


    G           D/F#          G 
E--3------------2--2----2-----3--------------| 
A--------------------------------------------| 
D--------------------------------------------| 
G---0-0----------2-2-2--2-2---0--0-----------| 
B----0-------------3----3---—-0---0----------| 
e--------------------------------------------| 
 Que la sombra y la luz 

  G 
E-3---------3------3-----3------------------| 
A-------------------------------------------| 
D-------------------------------------------| 
G-0-0-------0-0------0---0--0---------------| 
B-0---------3------2-----3—--3--------------| 
e-------------------------------------------| 
 se quedó ante tus ojos y tu 

    A           G 
E-------------3--3---3----3----| 
A---0--------------------------| 
D------------------------------| 
G----2---2---------------------| 
B-----3h2----—----0----0---0---| 
e----------------3----2---0----| 
ni siquiera la viste flotar 

   D/F#          C 
E--2------2--------------------| 
A---------------0h2-3----------| 
D------------------------------| 
G---2-----2----------0----0-0--| 
B-----3---3------------1---1---| 
e-----------------------0------| 
por el centro de la gravedad 

   C          A         A4 rasgueado  A       A5 
E--------------------------------------------------------| 
A--3----------0------------------------------------------| 
D---2-----------2-------(2-2-2-2)-(2-2-2-2)-(2-2-2-2)----| 
G----0--0--------2------(2-2-2-2)—(2-2-2-2)—(2-2-2-2)----| 
B-----1-—---------0h3---(3-3-3-3)-(2-2-2-2)-(0-0-0-0)----| 
e-----------------------(0-0-0-0)—(0-0-0-0)-(0-0-0-0)----| 
Que nos da la razón 


G             arreglo 1      D4/F# 
 Fue por eso que vino hasta aquí 
G                  arreglo 1  D4/F# 
Suplicando tonada y color 
G                  arreglo 1     D4/F# 
Como ves te la voy a decir 



E----------------------------2--2—--2--3---------| 
A—0h2-3-------3----0-----------------------------| 
D-------------------2----------------------------| 
G------0---0---0-----2--------2-2-2-2--0—--------| 
B-------1---1---1-----2-2-------3---3--0—--------| 
e--------0-------0-----0-------------------------| 
      Si le das el favor.....de existir 


E----3-----------------2----2---3-------------------------------| 
A----------------------------------------------2----------------| 
D-----------------------------------------------4---------------| 
G---0-----------2h0----2-2-2---0----------2h0----4---------4----| 
B---0—2h3—3h2h0----------3-3---0—2h3—3h2h0---------0h3—0h3---3--| 
e--------0--------------------------0-----------------2---2-----| 
  iiiiiiir 


     A                   G                D/F#     G 
E-----------------------3--3--3--3-3-3-3----2----2--3-----| 
A----0----------------------------------------------------| 
D---------------------------------------------------------| 
G----2---------------2--0--0--0--------------2-2-2--0-----| 
B----2-2h3-2h3—3h2h0----0--2--3--3-3-3-0-------3-3--0-----| 
e---------0---0------------------3-2-0-0------------------| 
                                              pudo ser 

      G                    D/F# 
E-----3--3---3--3--3-3-----2----2--3-----| 
A----------------------------------------| 
D----------------------------------------| 
G-----0--0------------------2-2-2--0-----| 
B-----2--3---3—3---3--0-------3-3--0-----| 
e------------3-2---0--0------------------| 
 que una noche a tu lado durmió 

      G     Bm 
E--3--------------------------| 
A-------------2---------------| 
D--------------4--------------| 
G---0-0---------4-------------| 
B----0-----—-----2h3----------| 
e---------------------2-------| 
como cuando nos llama una flor 


    A                G 
E---------------3--3---3---3-----| 
A---0----------------------------| 
D--------------------------------| 
G----2--------------0---0---0-----| 
B-----0h2----—-----3---2---0-----| 
e--------0-----------------------| 
no pudiste escucharla y después 

   G                 D/F#           C 
E--3---3-------------2------2---------------------| 
A---------------------------------0h2-3-----------| 
D-------------------------------------------------| 
G--0---0------2h0------2-----2----------0----0-0--| 
B--3---3—3h1h0-—---------3---3------------1---1---| 
e--3---2-----------------------------------0------| 
despertaste llorando sin más 

   c           A      D      D/F# G 
E--------------------------0---2--3----------| 
A--3----------0------------------------------| 
D---2-----------2----0-----------------------| 
G----0--0--------2----2-----------0-0-0------| 
B-----1-—---------2----3/5-5---3--0--0-------| 
e----------------------3/5-5-----------------| 
que la prisa de andar 

    G           D/F#          G 
E--3------------2--2----2-----3--------------| 
A--------------------------------------------| 
D--------------------------------------------| 
G---0-0----------2-2-2--2-2---0--0-----------| 
B----0-------------3----3---—-0---0----------| 
e--------------------------------------------| 
Arrebatando otro espacio mortal 

  G 
E-3---------3------3-----3------------------| 
A-------------------------------------------| 
D-------------------------------------------| 
G-0-0-------0-0------0---0--0----------------| 
B-0---------3------2-----3—--3---------------| 
e-------------------------------------------| 
otro numero clave,otro dios 

     A        G 
E-------------3--3---3----3-----| 
A---0---------------------------| 
D-------------------------------| 
G----2---2----------------------| 
B-----3h2----—----0----0---0----| 
e----------------3----2---0-----| 
otra puerta que te haga escapar 

   D/F#         C 
E--2------2--------------------| 
A---------------0h2-3----------| 
D------------------------------| 
G---2-----2----------0----0-0--| 
B-----3---3------------1---1---| 
e-----------------------0------| 
para luego de nuevo volver 

   C          A           A4 rasgueado A        A5 
E--------------------------------------------------------| 
A--3----------0------------------------------------------| 
D---2-----------2-------(2-2-2-2)-(2-2-2-2)-(2-2-2-2)----| 
G----0--0--------2------(2-2-2-2)—(2-2-2-2)—(2-2-2-2)----| 
B-----1-—---------0h3---(3-3-3-3)-(2-2-2-2)-(0-0-0-0)----| 
e-----------------------(0-0-0-0)—(0-0-0-0)-(0-0-0-0)----| 
Hasta el mismo lugar 


G             arreglo 1      D4/F# 
 Fue por eso que vino hasta aquí 
G                  arreglo 1  D4/F# 
Suplicando tonada y color 
G                  arreglo 1    D4/F# 
Como ves te la voy a decir 


   C                A     A4 rasgueado A A5 
E-------------------------| 
A—0h2-3-------3----0------| 
D-------------------2-----| 
G------0---0---0-----2----| 
B-------1---1---1-----2-2-| 
e--------0-------0-----0--| 
      Si le das el favor 


G             arreglo 1      D4/F# 
 Fue por eso que vino hasta aquí 
G                  arreglo 1  D4/F# 
Suplicando tonada y color 
G                  arreglo 1    D4/F# 
Como ves te la voy a decir 


  C                          D/F#     G 
E----------------------------2--2—--2--3---------| 
A—0h2-3-------3----0-----------------------------| 
D-------------------2----------------------------| 
G------0---0---0-----2--------2-2-2-2--0—--------| 
B-------1---1---1-----2-2-------3---3--0—--------| 
e--------0-------0-----0-------------------------| 
      Si le das el favor.....de existir 



E--------------------2----2---3--------------------------------| 
A---------------------------------------------2----------------| 
D----------------------------------------------4---------------| 
G-------------2h0-----2-2-2---0----------2h0----4---------4----| 
B--—2h3—3h2h0-----------3-3---0—2h3—3h2h0---------0h3—0h3---3--| 
e------0---------------------------0-----------------2---2-----| 
  iiiiiiir 

     A                   G                F#/D     G 
E----------------------3--3--3--3-3-3-3----2----2--3-----| 
A----0---------------------------------------------------| 
D--------------------------------------------------------| 
G----2----------2-0----0--0--0--------------2-2-2--0-----| 
B----2-2h3-3h2h0-------0--2--3--3-3-3-0-------3-3--0-----| 
e---------0---------------------3-2-0-0------------------| 





Arreglo 1 
G             D4/F# 
E--3--3--3--3----| 
A----------------| 
D----------------| 
G----------------| 
B--3-—3---3--0---| 
e--3--2---0--0---| 


Solo escuchen la canción y podrán escuchar 
Las pauses y los rasgueos como en el coro 
Pues lleva ambos. Me da gusto poder contribuir 
en esta excelente canción de filio. 

Hasta la siguiente vez..
	  

Full key step upFull key step up
Half key step upHalf key step up
Half key step downHalf key step down
Full key step downFull key step down
Search Paypal
auto scroll beats size up size down change color hide chords drawings
tab show chords e-chords YouTube Clip e-chords hide all tabs e-chords go to top tab