Alegría

Por Qué No Contestas

Alegría

tabs Expert expert

by  ROBE_MEDEIROS

save to print version add songbook text version e-mail correct tuner
chordsukulelecavacokeyboardtabbassdrumsharmonicaflute Guitar Pro
close

there isn't a video lesson for this song

chords

Por Qué No Contestas

	  		=INTRO= (Punteos en Guitarra) 

  'el número que usted marca... aún sigue ocupado...' 

       Cm                   Gm              Cm                  D 
E----6-8-8-6-8-6-8-8-6-8-10---------- ----6-8-8-6-8-6-8-8-6-8-6-6-5-- 
B---8-----------------------11-10-8-- ---8--------------------------- 
G--7--------------------------------- --7---------------------------- 
D------------------------------------ ------------------------------- 
A------------------------------------ ------------------------------- 
E------------------------------------ ------------------------------- 

   'el número que usted marca... aún sigue ocupado...' 

       Cm                   Gm              Cm                  D 
E----6-8-8-6-8-6-8-8-6-8-10---------- ----6-8-8-6-8-6-8-8-6-8-6-10-- 
B---8-----------------------11-10-8-- ---8-------------------------- 
G--7--------------------------------- --7--------------------------- 
D------------------------------------ ------------------------------ 
A------------------------------------ ------------------------------ 
E------------------------------------ ------------------------------ 

      Gm  F     A#     Gm  F     A# 
E------------------------------------ 
B---6-8---6----------6-8---6--------- 
G--7--------7-5-7---7--------7-5-7--- 
D------------------------------------ 
A------------------------------------ 
E------------------------------------ 

           A#               F                Gm 
E--10-10-8-----------8-8------------------------ 
B----------11-11-11------11-10-10-10--11-10--8-- 
G------------------------------------------10--- 
D----------------------------------------------- 
A----------------------------------------------- 
E----------------------------------------------- 

           A#               F                Gm 
E--10-10-8-----------8-8------------------------ 
B----------11-11-11------11-10-10-10--11-10--8-- 
G------------------------------------------10--- 
D----------------------------------------------- 
A----------------------------------------------- 
E----------------------------------------------- 


=ESTROFA= 
         F                        Gm 
  TE CONOCÍ Y TAN SÓLO TENGO TU TELÉFONO, 
         Cm                           D 
  MI CORAZÓN ME PIDE A GRITOS LLÁMALA YA... 
          F                              Gm 
  PERO PORQUÉ SIEMPRE QUE LLAMO SUENA OCUPADO, 
           Cm                                  D 
  HACE DOS HORAS QUE ESTOY LLAMANDO, NO PUEDO MÁS... 

=CORO= 
      Gm        A#            Gm            A# 
  POR QUÉ NO CONTESTAS... CON QUIÉN ESTÁS HABLANDO... 
     F             A#        F             Gm 
  SI OÍR QUIERO TU VOZ... SI OÍR QUIERO TU VOZ... 


=Instrumental= (Punteo en Guitarra) Se toca 2 veces 

    Gm      A#   Gm      A#      F     Gm     F     Gm 
E---6-8--8-6-----6-8--8-6-----6-----6------6-----6----- 
B--8--------8---8--------8-----8-6---6-8----8-6---6-8-- 
G------------------------------------------------------ 
D------------------------------------------------------ 
A------------------------------------------------------ 
E------------------------------------------------------ 

  '¡porqué...  por qué mi amor!' 

=CORO= 
      Gm        A#            Gm            A# 
  POR QUÉ NO CONTESTAS... CON QUIÉN ESTÁS HABLANDO... 
     F             A#        F             Gm 
  SI OÍR QUIERO TU VOZ... SI OÍR QUIERO TU VOZ... 


Se toca nuevamente: 
=INTRO=         (se tocan los punteos de la INTRO) 

=ESTROFA= 
         F                        Gm 
  TE CONOCÍ Y TAN SÓLO TENGO TU TELÉFONO, 
         Cm                           D 
  MI CORAZÓN ME PIDE A GRITOS LLÁMALA YA... 
          F                              Gm 
  PERO PORQUÉ SIEMPRE QUE LLAMO SUENA OCUPADO, 
           Cm                                D 
  HACE DOS DÍAS QUE ESTOY LLAMANDO, NO PUEDO MÁS... 

=CORO=          (Se toca y canta el CORO) 
=Instrumental=  (Se toca 2 veces el punteo de la Instrumental) 
=CORO=          (Se toca y canta el CORO) 
=Instrumental=  (Se toca 4 veces el punteo de la Instrumental) 

		  

Full key step upFull key step up
Half key step upHalf key step up
Half key step downHalf key step down
Full key step downFull key step down
hide glossary

See also:

tabs Chancho en Piedra - Niño peo tabs Alvaro Henríquez - Sirviente Y No Patrona tabs Chancho en Piedra - Volantin tabs Alvaro Veliz - No Se Vivir tabs Chancho en Piedra - Eligiendo una reina tabs Chancho en Piedra - Locura espacial
e-chords

Other versions:

tabs Alegría - Por Qué No Contestas
auto scroll beats size up size down change color hide chords drawings
tab show chords e-chords YouTube Clip e-chords hide all tabs e-chords go to top tab

share