Alberto Escobar

Coincidir

Alberto Escobar

tabs

by  ROBEPOIEL

save to print version add songbook text version e-mail correct tuner
chordsukulelecavacokeyboardtabbassdrumsharmonicaflute Guitar Pro
close

there isn't a video lesson for this song

chords

Coincidir

	  		 INCLUYO SOLO EL REQUINTO DE INTRODUCCION QUE ES EL SIGUIENTE: 


e ----------0-2-3-3-2-2-2-3-2-0---0-0----- 
b 0-1-0-1-3---------------------3-----3-1- 
g ---------------------------------------- 
D ---------------------------------------- 
A ---------------------------------------- 
E ---------------------------------------- 

e 3-2-0----------------------------------- 
b ------3-1-0----------------------------- 
g  ------------2-0------------------------- 
D ---------------------------------------- 
A ---------------------------------------- 
E ---------------------------------------- 

e ----------0-2-3-3-2-2-2-3-2-0---0-0----- 
b 0-1-0-1-3---------------------3-----3-1- 
g ---------------------------------------- 
D ---------------------------------------- 
A ---------------------------------------- 
E ----------------------------------------  

e ----------0-2-3-------------------------  
b ----0-1-3------------------------------- 
g 0-2------------------------------------- 
D ---------------------------------------- 
A ---------------------------------------- 
E ----------------------------------------  

Y ES OTR MAS DEDICADA A MARCIA DAFNE.
		  

See also:

tabs Ansia - La Vida Es Como Una Colina tabs RBD - Salvame (ver. 2) tabs RBD - Este Corazón tabs RBD - El Mundo Detrás tabs Alan - Inevitable tabs Camila - U Got My Love
e-chords

Other versions:

tabs Alberto Escobar - Coincidir
auto scroll beats size up size down change color hide chords drawings
tab show chords e-chords YouTube Clip e-chords hide all tabs e-chords go to top tab

share