Albert Lee

home > Albert Lee

Country Boy Tab

Albert Lee

Difficulty: ExpertExpert

tuner correct add songbook print version text version save to e-mail
chordsukulelecavacokeyboardtabbassdrumsharmonicsflute Guitar Pro
chords

Country Boy

  		By Stallion		[email protected] 
 
This is the first solo after the second verse and chorus. 
Some parts of it is really fast, but just have patience; When you first 
get it itīs a fun piece to play. 
Listen to the song to get the rythm. 
Send me an e-mail if you got any comments! 
 
  
************************************************************************ 
p = pulloff		/ = slide up	h = hammer on 
 
~ = vibrato		b = bend		bh = bend and hold 
 
 = slide down	! harmonic		r = release bend 
 
************************************************************************ 
 
It starts with the intro with a small change in the beginning (marked *). 
  
               * 
E------------------------------------------------------------- 
B----------3-----------3-----------------3-----0---0-------0-- 
G------0-----0-----0-----0---0-------0-----0---------------0-- 
D--4h5---5-----4h5---5-----5---5-4h5---5-----5-------------0-- 
A------------------------------------------------3---0h1------ 
E--------------------------------------------------------3---- 
 
 
                                               
E---------------------------------------------------- 
B---------------1---0-------------------------------- 
G---------0-------3---0-----0---------------0-------- 
D-----------2p0---------0h2-----------0-2p0---------- 
A---0h1h2-----------------------0h1h2---------------- 
E-3---------------------------3---------------3-2-1-- 
 
Here starts the acoustic guitar solo 
                                  
E--------------------0-----0---------0-----0-------0-----0---- 
B------0---0-----0-----0-----0---------0-------------0-------- 
G--2/4---4---3h4---4-----4-----4-4/6-----6---6-4h5-----5---5-- 
D------------------------------------------------------------- 
A------------------------------------------------------------- 
E------------------------------------------------------------- 
 
    
E---------4---------3----------------------------0------------------- 
B-----0-----0---0-----0-----0------------------5----0-5--7-8-7-5---5- 
G-2/4---4-----4---3-----3p2-----1--------4-6-4-------------------6--- 
D-----------------------------4---2--4/6----------------------------- 
A-------------------------------------------------------------------- 
E-------------------------------------------------------------------- 
 
 
E------7-9p7---7--9h12--12--10p9----9-----------------7------------- 
B--7/9-------9-------------------12---12-11-10--7-8-9---9-8p7---8p7- 
G-------------------------------------------------------------9----- 
D------------------------------------------------------------------- 
A------------------------------------------------------------------- 
E------------------------------------------------------------------- 
 
 
E--------------------------------------------------------- 
B------------------------------------------------------5-- 
G-9-7--------------------------------1-----1----0--4/6---- 
D-----9-8-7-0-5-6----------------------------------------- 
A-----------------7-5-------------------2----0------------ 
E---------------------7-6-5-0-3-4-0----------------------- 
 
 
E------------7/9-7---------------------------------------------------------- 
B-7-5-5---5--------9-8-7---------------------------------------------------- 
G-------6----------------9-7------------------------------------------------ 
D----------------------------9-8-7-x-5-----------------2-4--5--2--4---2-4/6- 
A--------------------------------------7-6-5--0--2-3-4--------------4------- 
E--------------------------------------------------------------------------- 
 
                                *sounds like he just slide down the whole string    
E---------------------------------12\------------------------ 
B------------------------12-14-12-------0-0--------5-----5h6-- 
G--4------11----9--11/13------------------------5----5-------- 
D----9/11----11-----------------------------/5---------5------ 
A------------------------------------------------------------- 
E------------------------------------------------------------- 
 
 
E-----------------------0--------------------------------------------------| 
B---5---------------6-------------------------------5-----5h6--5-----------| 
G-------7p5---5-6h7---7---7---------------0-------5---5-----------7p5---0--| 
D-5---5-----5---------------87-----5-7-5---5-/5-------5-------------5----| 
A-------------------------------5/7----------------------------------------| 
E--------------------------------------------------------------------------| 
 
Intro - the acoustic- and lead guitar dobles the intro 
 
After the intro plays the lead guitar a little fill-in 
 
  G | | | G | | |  
E------------------------------------------------------|            
B-----------------5bh-5r-p0-3b----5--------3p0---------| 
G-----------------5bh-5r-p0-3b----5------3h4p0-0-------|  
D-------------------------------5----x-5---------3p0---| 
A------------------------------------------------------| 
E------------------------------------------------------|
	  

Search Paypal
auto scroll beats size up size down change color hide chords drawings
tab show chords e-chords YouTube Clip e-chords hide all tabs e-chords go to top tab