Alabama Shakes

Joe

Alabama Shakes

tabs nolevel nolevel

by  UBIRBOMFIM

save to print version add songbook text version e-mail correct tuner
chordsukulelecavacokeyboardtabbassdrumsharmonicaflute Guitar Pro
close

there isn't a video lesson for this song

chords

Joe

	  		Intro 

e|------|------|-------|------|5---7-|/9-\7-5-|~7-------|------|--------------| 
B|5-----|5-----|/7-----|5-----|------|--------|-----/9\7|5-----|--------------| 
G|--6---|--6---|---7---|--6---|----7-|/9-\7---|~7---/9\7|------|--------------| 
D|----7-|----7-|-----7-|----7-|7-----|------7-|---------|7-----|--------------| 
A|0-----|------|-5-----|0-----|------|--------|---------|------|--------------| 
E|------|------|-------|------|------|--------|---------|------|--------------| 

e|------|----------|5-7-----|------|--------|--------|------|------|----------| 
B|5-----|5h7-------|-----10-|7-----|5-------|5-------|5-----|5-----|----------| 
G|--6---|----6h7---|--7--11-|7-----|--6-----|--4-----|--6---|--6---|----------| 
D|------|--------7-|7----12-|7-----|----7---|----6---|----7-|----7-|----------| 
A|0---7-|----------|-----12-|------|0----(7)|0----(7)|0-----|------|----------| 
E|------|----------|--------|------|--------|--------|------|------|----------| 

************************************ 

| (n) Ghost note 
| h   Hammer-on 
| /   Slide up 
| \   Slide down 
| ~   Vibrato 

************************************ 
		  

See also:

tabs Muddy Waters - Champagne & Reefer tabs John Lee Hooker - One bourbon, one scotch, one beer tabs Robert Johnson - Me and the devil Blues tabs Muddy Waters - Mississippi Delta Blues tabs John Lee Hooker - Funky mabel tabs Stevie Ray Vaughn and Double Trouble - Life By The Drop
e-chords

Other versions:

tabs Alabama Shakes - Joe tabs Bouncing Souls - Joe Lies tabs Fall Out Boy - Joe The Janitor tabs Kings of Leon - Joe's Head tabs Frank Zappa - Joes Garage
auto scroll beats size up size down change color hide chords drawings
tab show chords e-chords YouTube Clip e-chords hide all tabs e-chords go to top tab

share with facebook