Al Di Meola

Blackbird

Al Di Meola

tabs

by  JOV-CORREA

save to print version add songbook text version e-mail correct tuner
chordsukulelecavacokeyboardtabbassdrumsharmonicaflute Guitar Pro
close

there isn't a video lesson for this song

chords

Blackbird

	  		

All "|" are quavers (eigth-notes). The rhythm is quite complex merging ternary and binary. 
tuning : 6 = D 

E ------------------------------------------------------------------------------------------------| 
B ------------------------------0-----------0-----------------------------------0-----0-----0-----| 
G --------------------------------------------------------------------------------0-----0-----0---| 
D ------5-----------7---------0---0------0-----0--------5-----------7---------0-----0-----0-----0-| 
A ----3---0------5-----0------------------------------3---0------5-----0--------------------------| 
D 1---------3-------------5---------5-------------1---------3-------------5-----------------------| 
  |-|-|-|-|-|-|-|-|-|-|-|-|-|-|-|-|-|-|-|-|-|-|-|-|-|-|-|-|-|-|-|-|-|-|-|-|-|-|-|-|-|-|-|-|-|-|--| 

E --------------------------------------------------------------------------------------------------| 
B --------------------------------------------------------------------------------------------------| 
G --0-----------------------0-----------------------0-----------------------0-----------------------| 
D 4---4-0---------0-----0-4---4-0-------------0---1---1-0---------0-----0-1---1-0---0-----0---0-----| 
A ----------0---5-----5-------------0---3-------------------0---0-----0-------------------0---------| 
D ------------5-----5-----------------5-----------------------4-----4-------------------4--------1--| 
  |-|-|-|-|-|-|-|-|-|-|-|-|-|-|-|-|-|-|-|-|-|-|-|-|-|-|-|-|-|-|-|-|-|-|-|-|-|-|-|-|-|-|-|-|-|-|-|---| 

E ----------------3-----------------------101210------------------1210-----------------------------| 
B --------------3-----------8-----------8---------0-----------------------0------------------------| 
G ------------5-----------5---5-------7---------------0---0-------------------0---0---------0------| 
D ----------5-----------5-------5---7-----------0-------------0---------0-------------0-------0----| 
A ------------------------------------------------------9---9-------------------9---9---9-------3--| 
D 0_____5_5---------7_7-----------9----------------------------------------------------------------| 
  |-|-|-|-|-|-|-|-|-|-|-|-|-|-|-|-|-|-|-|-|-|-|-|-|-|-|-|-|-|-|-|-|-|-|-|-|-|-|-|-|-|-|-|-|-|-|-|--| 

E ----5---3---5---3-------5-------------8_10------7_______------------------------7-5-3----------5--| 
B --------------------------8-------7-------------0_______--------------------7---------7-5-3-------| 
G ----------------------5---------5---8-------0-----------4_5_4-------------54----------------------| 
D --------------------5---------------------------5_______------5---------47------------------------| 
A 3---------4-----------------6-----------------------------------7-5-6-----------------------5-----| 
D --------------------------------------------------------------------------------------------------| 
  |-|-|-|-|-|-|-|-|-|-|-|-|-|-|-|-|-|-|-|-|-|-|-|-|-|-|-|-|-|-|-|-|-|-|-|-|-|-|-|-|-|-|-|-|-|-|-|---| 

E ------7-----3---------------------------3-3___________1110------------------3--3---5_5-----7---5-| 
B 0-------5-----------5-----5-5-----5-6_5-4-4___________----118----------------3-------------------| 
G --0-------0-----------------------------3-3___________--------107-------------0--------6---------| 
D ----------------------------------------3-3___________------------9-5--------------------5-------| 
A ----4-----------3-----3-3-----3-3-------------------------------------82-------------------------| 
D -------------------------------------------------------------------------------------------------| 
  |-|-|-|-|-|-|-|-|-|-|-|-|-|-|-|-|-|-|-|-|-|-|-|-|-|-|-|-|-|-|-|-|-|-|-|-|-|-|--|-|-|-|-|-|-|-|--| 


E ----------5_5-----3-----7-----5---------3-------3-------------3-------3---------------3---------| 
B --8-----5-----------5-----5-----5-----------0-------0-------------0-------0---------3-----------| 
G ----6-----------------5-----------0-------0---0---0---0---------0---0---0---0-----4-----------5-| 
D ------5-------------------------------------------------------------------------5-----------5---| 
A ----------------------------6-------------------------------------------------------------------| 
D ------------------------------------5---------------------3------------------5----------7-------| 
  |-|-|-|-|-|-|-|-|-|-|-|-|-|-|-|-|-|-|-|-|-|-|-|-|-|-|-|-|-|-|-|-|-|-|-|-|-|-|-|-|-|-|-|-|-|-|--| 

E --------------101210------------------1210--------------------------------5---3---5---3-------5-| 
B 8-----------8---------0-----------------------0-------------------------------------------------| 
G --5-------7---------------0---0-------------------0---0---------0---------------------------5---| 
D ----5---7-----------0-------------0---------0-------------0-------0-----------------------5-----| 
A ----------------------------9---9-------------------9---9---9-------3-----------4---------------| 
D ------9-----------------------------------------------------------------------------------------| 
  |-|-|-|-|-|-|-|-|-|-|-|-|-|-|-|-|-|-|-|-|-|-|-|-|-|-|-|-|-|-|-|-|-|-|-|-|-|-|-|-|-|-|-|-|-|-|--| 


E ------------8_10------7_____----------------------------------7-5-3-----------5-------7-----3---| 
B 8-------7-------------0_____--------------------------------7-------7-5-3-------0-------5-------| 
G ------5---8-------0-----------7-8---875-4---------------5-4-----------------------0-------0-----| 
D ----------------------5_____--------------7-5-4-----4-7-----------------------------------------| 
A --6---------------------------------------------5-6-----------------------5---------4---------3-| 
D ------------------------------------------------------------------------------------------------| 
  |-|-|-|-|-|-|-|-|-|-|-|-|-|-|-|-|-|-|-|-|-|-|-|-|-|-|-|-|-|-|-|-|-|-|-|-|-|-|-|-|-|-|-|-|-|-|--| 

E ------------------------3-3___________1510----------------------------1311----| 
B ----5-----5-5-----5-6_5-4-4___________----11------------------------11--------| 
G ------------------------3-3___________------12107-------------10--12----------| 
D ------------------------3-3___________------------8-------1012--13------------| 
A 3-----3-3-----3-3-----------------------------------108-6-----------------2---| 
D ------------------------------------------------------------------------------| 
  |-|-|-|-|-|-|-|-|-|-|-|-|-|-|-|-|-|-|-|-|-|-|-|-|-|-|-|-|-|-|-|-|-|-|-|-|-|-|-| 

----3--3---5-----7---5------------| 
-----3-------------------8-----5--| 
------0------6-------------6------| 
---------------5-------------5----| 
----------------------------------| 
----------------------------------| 
|-|--|-|-|-|-|-|------------------| 

E 5-------3-----7-----5---------3-------3---------------------------------------------------------| 
B ----------5-----5-----5-----------0-------0---------1----------3-----------2---------------1----| 
G ------------5-----------0-0-----0---0---0---0-----------0----------0-----------0---------0---1--| 
D ------------------------------------------------------2----------0---0-------2---2-----0--------| 
A ------------------6-----------------------------3---------2------------0------------------------| 
D --------------------------5--------------------------------------------------------0------------| 
  |-|-|-|-|-|-|-|-|-|-|-|-|-|-|-|-|-|-|-|-|-|-|-|-|-|-|-|-|-|-|-|-|-|-|-|-|-|-|-|-|-|-|-|-|-|-|--| 

tab by xavier parmantier 
		  

Full key step upFull key step up
Half key step upHalf key step up
Half key step downHalf key step down
Full key step downFull key step down
auto scroll beats size up size down change color hide chords drawings
tab show chords e-chords YouTube Clip e-chords hide all tabs e-chords go to top tab

share