Airbourne

Bottom Of The Well

Airbourne

tabs

by  MATHEUSCARDOZO

save to print version add songbook text version e-mail correct tuner
chordsukulelecavacokeyboardtabbassdrumsharmonicaflute Guitar Pro
close

there isn't a video lesson for this song

chords

Bottom Of The Well

	  		
Introdução - 

E|-------------------------------|--------------------------| 
B|-------------------------------|--------------------------| 
G|-------------------9b---9--7---|--9b---9--7----------7~---| 
D|---9~--7h-9--------------------|---------------7h--9------| 
A|-------------------------------|--------------------------| 
E|-------------------------------|--------------------------| 

E|-----------------------------------|--------------------------------| 
B|-----------------------------------|-----------------10--9--7-------| 
G|-----7------------------9b----9--7~|-7h-9--11--9~---------------7~--| 
D|---7---7--9~----7h-9---------------|--------------------------------| 
A|-----------------------------------|--------------------------------| 
E|-----------------------------------|--------------------------------| 

Solo - Guitarra Solo 

Parte 1 - (2:22) 

E|------------------------------------| 
B|-9b-9~~-----------------------------| 
G|-9b-9~~--9-7-9-7---7-9b-9-7---------| 
D|-----------------9----------9-7-9~~-| 
A|------------------------------------| 
E|------------------------------------| 

Parte 2 - (2:28) 

E|----7------------------|-------------------------| 
B|-------10-7-----7-10b--|-10-9-7------------------| 
G|-9b----------9b--------|--------9b---------------| 
D|-----------------------|-------------9-7--7-9~~--| 
A|-----------------------|-----------------9-------| 
E|-----------------------|-------------------------| 

E|-------------------------------| 
B|-------------------------------| 
G|-------------------------------| 
D|-7-7-7-7-7-9-7-6-6-6-6-7-7-9-7-| 
A|-------------------------------| 
E|-------------------------------| 

E|----7----------7----------7-------|----------------------------| 
B|------10-7-------10-7------10-7---|-10-9-7---------------------| 
G|-9b--------9-9b------9-9b-------9-|--------9b-7----------------| 
D|----------------------------------|-------------9-7----7-9~~---| 
A|----------------------------------|-----------------9-7--------| 
E|----------------------------------|----------------------------| 

E|----------------------------------------------------------------| 
B|--21b-21b-21b-21b-19-21-21b-21b-21b-21b-21b-21-19-19-21-19-21b--| 
G|----------------------------------------------------------------| 
D|----------------------------------------------------------------| 
A|----------------------------------------------------------------| 
E|----------------------------------------------------------------| 
		  

See also:

tabs Creed - One Last Breath (ver. 2) tabs John Mayer - Neon tabs The Offspring - Come Out and Play tabs The Doors - Riders On The Storm tabs Guns N' Roses - Knockin' On Heaven's Door tabs Jack Johnson - Breakdown
e-chords

Other versions:

tabs Airbourne - Bottom Of The Well
auto scroll beats size up size down change color hide chords drawings
tab show chords e-chords YouTube Clip e-chords hide all tabs e-chords go to top tab

share