Airbourne

Blonde Bad And Beautiful

Airbourne

tabs Beginner beginner

by  MATHEUSCARDOZO

save to print version add songbook text version e-mail correct tuner
chordsukulelecavacokeyboardtabbassdrumsharmonicaflute Guitar Pro
close

there isn't a video lesson for this song

chords

Blonde Bad And Beautiful

	  		
(Riff Inicial) - Guitarra Solo 

E|-------------------------------|--------------------------5----| 
B|--7--7--5--4--5--5--4--7--7----|--4--7--7--5--4--5--5--4--5----| 
G|--4--4--4--4--4--4--4--4--4----|--4--4--4--4--4--4--4--4-------| 
D|-------------------------------|-------------------------------| 
A|-------------------------------|-------------------------------| 
E|-------------------------------|-------------------------------| 

(Intro) - Guitarra Base 

E|-------------------------------------| 
B|-------------------------------------| 
G|--4---------4---------4---------2----| 
D|--4----2----4----2----4----2----2----| 
A|--2----2----2----2----2----2----0----| 
E|-------0---------0---------0---------| 

(Riff dos Versos) 

E|-------2--------------------------------------------| 
B|-------3--------------------------------------------| 
G|--4----2----2----4---------2----2---------2----4----| 
D|--4---------2----4---------2----2----2----2----4----| 
A|--2---------0----2---------0----0----2----0----2----| 
E|----------------------3--------------0--------------| 

(Pré-Refrão) 

E|----------------------------------------------------------------------------------| 
B|----------------------------------------------------------------------------------| 
G|-----------------2---------2------------------------2----2---------2----2---------| 
D|--2----2----2----2----2----2----4----4----4----4----2----2---------2----2----2----| 
A|--2----2----2----0----2----0----4----4----4----4----0----0---------0----0----2----| 
E|--0----0----0---------0---------2----2----2----2-------------3---------------0----| 

(Refrão) 

E|----------------------------------------------------| 
B|----------------------------------------------------| 
G|--4---------2--------------2----4----4----4----4----| 
D|--4----2----2----2---------2----4----4----4----4----| 
A|--2----2----0----2---------0----2----2----2----2----| 
E|-------0---------0----3-----------------------------| 

E|----------------------------------------------------| 
B|----------------------------------------------------| 
G|----------------------2----2--------------2----4----| 
D|--2-------------------2----2--------------2----4----| 
A|--2----5----4----2----0----0--------------0----2----| 
E|--0-----------------------------4----4--------------| 

(Pré-Solo) 

E|--2-----------------------------| 
B|--3-----------------------------| 
G|--2---------2---------2----4----| 
D|-------2----2----2----2----4----| 
A|-------2----0----2----0----2----| 
E|-------0---------0--------------| 


(Base do Solo) 

E|-------------------------------------| 
B|-------------------------------------| 
G|--4---------2--------------2----4----| 
D|--4----2----2----2---------2----4----| 
A|--2----2----0----2---------0----2----| 
E|-------0---------0----3--------------| 
		  

See also:

tabs Creed - One Last Breath (ver. 2) tabs John Mayer - Neon tabs The Offspring - Come Out and Play tabs The Doors - Riders On The Storm tabs Guns N' Roses - Knockin' On Heaven's Door tabs Jack Johnson - Breakdown
e-chords

Other versions:

tabs Airbourne - Blonde Bad And Beautiful
auto scroll beats size up size down change color hide chords drawings
tab show chords e-chords YouTube Clip e-chords hide all tabs e-chords go to top tab

share