Air Supply

home > Air Supply

Making love out nothing at all Tab

Air Supply

Difficulty: IntermediateIntermediate

by supply

tuner correct add songbook print version text version save to e-mail
chordsukulelecavacokeyboardtabbassdrumsharmonicsflute Guitar Pro
chords

Making love out nothing at all

  		intro.: 
 
2x 
 
|-----------8-7-8-7-------------------------------------------- 
|-8---8--10----------10--8-7-8---8------------------------------------ 
|---7--------------------------7------------------------------ 
|------------------------------------------------------------- 
|------------------------------------------------------------- 
|------------------------------------------------------- 
 
3x 
 
|---------8-7-8-7-------------------8-7-8-7----------------------- 
|---8--10----------10-8-7-8---8--10---------10--8-7-8-------------------- 
|-9-------------------------9------------------------------ 
|---------------------------------------------------------- 
|-------------------------------------------------------- 
|-------------------------------------------------------- 
 
 

	  

Search Paypal
auto scroll beats size up size down change color hide chords drawings
tab show chords e-chords YouTube Clip e-chords hide all tabs e-chords go to top tab