Air Supply

home > Air Supply

Goodbye Acustic (solo) Tab

Air Supply

Difficulty: nolevelnolevel

by jander46

tuner correct add songbook print version text version save to e-mail
chordsukulelecavacokeyboardtabbassdrumsharmonicsflute Guitar Pro
chords

Goodbye Acustic (solo)

  		
e|-------------------------------------------------------------------------| 
B|---------3-4-6---6-6-4-3-4-4/6--6-6-4-6-8-9---8-8-6-5-8-9--8-6-4---------| 
G|---2-3-5-----------------------------------------------------------------| 
D|-------------------------------------------------------------------------| 
A|-------------------------------------------------------------------------| 
E|-------------------------------------------------------------------------| 

e|-4-3--------------------------------| 
B|-----6-4-3--------------------4--/6-| 
G|-----------5-3---------5--3-5-------| 
D|---------------6-5---3--------------| 
A|------------------------------------| 
E|------------------------------------| 
	  

Search Paypal
auto scroll beats size up size down change color hide chords drawings
tab show chords e-chords YouTube Clip e-chords hide all tabs e-chords go to top tab