Aerosmith

home > Aerosmith

Walkin The Dog Tab

Aerosmith

Difficulty: BeginnerBeginner

by fernsantana

tuner correct add songbook print version text version save to e-mail
chordsukulelecavacokeyboardtabbassdrumsharmonicsflute Guitar Pro
chords

Walkin The Dog

  		
   intro 
   E------------------------| 
   B------------------------| 
   G--9-9------------9-7----| 
   D--9-9------------9-7----| 
   A--7-7------------7-7----| 
   E--0-0------------0-0----| 
   *repeat these two chords when appropriate 

verse- 
e-------------------------------------------------------------------| 
B-------------------------------------------------------------------| 
G-------------------------------------------------------------------| 
D-----------5---2-----------5---2-----------5---2-------------------| 
A---------2-------5-2-----2-------5-2-----2-------5-2---------------| 
E-12\-0-0-------------0-0-------------0-0---------------------------| 

e---------------------------| 
B---------------------------| 
G---------------------------| 
D-5-5--4-4--3-3--2-2--0h2p0-| 
A---------------------------| 
E---------------------------| 

This is how Brad plays the verse riff on "Unplugged:" 
   e-----------------------|-------------------------------| 
   B-----------------------|-------------------------------| 
   G-----------------------|-------------------------------| 
   D----------5~~~---------|--5-5--4-4--3-3--2-2--0h2p0----| 
   A---------------7--5----|-------------------------------| 
   E--0-0--7-------------7-|-------------------------------| 


  Mary mack       dressed in black silver buttons up & down her back 
e-------------------------------------------------------------------| 
B-------------------------------------------------------------------| 
G-------------------------------------------------------------------| 
D-------5---2-----------5---2-----------5---2-----------5---2-------| 
A-----2-------5-2-----2-------5-2-----2-------5-2-----2-------5-2---| 
E-0-0-------------0-0-------------0-0-------------0-0---------------| 

  How'd I know?   This she told. She broke a needle now she can't sew 
e-------------------------------------------------------------------| 
B-------------------------------------------------------------------| 
G-------------------------------------------------------------------| 
D-------5---2-----------5---2---------------------------------------| 
A-----2-------5-2-----2-------5-2-2---------------------------------| 
E-0-0-------------0-0-------------0---------------------------------| 

Walkin' the dog      I'm just a walkin' your dog        well if you 
e-------------------------------------------------------------------| 
B-------------------------------------------------------------------| 
G-------------------------------------------------------------------| 
D------------2---4---5---4---2---4----------------------------------| 
A------------0---0---0---0---0---0---2---4---5---4---2---4----------| 
E------------------------------------0---0---0---0---0---0----------| 

  Don't know how to do it, I'll show you how to walk the dog 
e-------------------------------------------------------------------| 
B-------------------------------------------------------------------| 
G-------------------------------------------------------------------| 
D--4--4--4--4--4--4--4--4--2--2--2--2--2--2--2--2--2-x-x-x-x-x-x-x--| 
A--2--2--2--2--2--2--2--2--0--0--0--0--0--0--0--0--0-x-x-x-x-x-x-x--| 
E-------------------------------------------------------------------| 

    interlude-       * 
   e-------------------|------------------------------------------------| 
   B-------------------|------------------------------------------------| 
   G-------------------|---------5/4---------------5/4------------------| 
   D--------5p4--------|-------------7p5---------------7-5/-------------| 
   A------------7p5----|---0-0-7---------7---0-0-7-------------\9-9-9-9-| 
   E--0-0-7---------7--|---------------------------------------\7-7-7-7-| 

   * repeat 

   gtr.2 plays what sounds like these two notes during the interlude: 

   e--3---------10-------------------| 
   B--3---------10-------------------| 
   G--0----------0-------------------| 
   D---------------------------------| 
   A---------------------------------| 
   E---------------------------------| 


This is how I play the variation at the end (Brad plays it a little 
differently on "Unplugged"): 
                                                   ...dog 
   e-------------------------------------------------|-----| 
   B---------------------------------------------2---|-----| 
   G-----------------------------------------4---2---|-----| 
   D---------5~~~--------5-4-3-2-------------4---2---|--2--| 
   A--------------7-5----------------0-1-2---2---0---|--2--| 
   E--0-0-7-----------7------------3-----------------|--0--| 
	  

Search Paypal
auto scroll beats size up size down change color hide chords drawings
tab show chords e-chords YouTube Clip e-chords hide all tabs e-chords go to top tab