Aerosmith

home > Aerosmith

Seasons of Wither Tab

Aerosmith

Difficulty: EasyEasy

tuner correct add songbook print version text version save to e-mail
chordsukulelecavacokeyboardtabbassdrumsharmonicsflute Guitar Pro
chords

Seasons of Wither

Year: 1993 - Album: Get Your Wings

  		Intro Fig. (7x)                        
 e+-----------------|-----------------|    On the        -----|
 B+-----------------|-----------------|    last rep      -----|
 G+-----0-----0-----|-----0-----0-----|    substitute    ---0-|
 D+---0-----0-----0-|---2-----3-----3-|    these for     -----|
 A+-------1---------|-0-----1-----1---|    the last      -3---|
 E+-3-----------3---|-----------------|    two notes:    -----|


Bridge Fig. (4x)
   D                           C                    D     C   Bb  F
 |-----------------|-----------------|  Replace   |-----------------|
 |-7-----7---------|-7-----7---5-----|  the last  |-7-7---5---3-----|
 |-7-----7---------|-7-----7---5-----|  measure   |-7-7---5---3-----|
 |-7-----7---------|-7-----7---5-----|  of the    |-7-7---5---3---3-|
 |-5-----5---------|-5-----5---3-----|  last rep  |-5-5---3---1---3-|
 |-----------------|-----------------|  with:     |---------------1-|


Verse Fig. (5x)
 |-----------------|-----------------|-----------------|-----------------|
 |-----------------|-----------------|-----------------|-----------------|
 |-----2-----0-----|-----2-----0-----|-----2-----2-----|-----0-----0-----|
 |---0-----0-----0-|---0-----0-----0-|---0-----0-----0-|---0-----0-----0-|
 |-----------------|-----------------|-----------------|-----------------|
 |-0-----0-----0---|-1-----1-----1---|-2-----2-----2---|-3-----3-----3---|

-blues hearted lady, sleepy was she
-love for the devil brought her to me
-seas of a thousand drawn to her sin
-Seasons of Wither holdin' me in


CHORUS:
~~~~~~
 |-----------------|-----------------|-----------------|
 |-----------------|-----------------|-----------------|
 |-----0-----0-----|-----0-----0-----|-----2-----0-----|
 |---0-----0-----0-|---2-----2-----2-|---0-----0-----0-|
 |-----------------|-3-----3-----3---|-2-----2-----2---|
 |-3-----3-----3---|-----------------|-----------------|

 |-----------------|-----------------|-----------------|
 |-----------------|-----------------|-----------------|
 |-----2-----0-----|-----2-----0-----|-----0-----0-----|
 |---0-----0-----0-|---0-----0-----0-|---0-----0-----0-|
 |-----------------|-----------------|-----------------|
 |-0-----0-----0---|-1-----1-----1---|-3-----3-----3---|

-ooh always me, I feel so badly for you

(repeat last 6 measures)
-ooh always me, I feel so sadly for you at times

 |-----------------|-----------------|-----------------|
 |-----------------|-----------------|-----------------|
 |-----0-----0-----|-----0-----0-----|-----0-----0-----|
 |---0-----0-----0-|---0-----0-----0-|---0-----0-----0-|
 |-0-----0-----0---|-1-----1-----1---|-3-----3-----3---|
 |-----------------|-----------------|-----------------|

-bound to lose your mind
-live on borrowed time
-take the wind right out of your sails

end CHORUS


w/Bridge Fig. (6x)
-fireflies dance in the heat of
-hound dogs that bay at the moon
-my ship leaves in the midnight
-can't say I'll be back too soon

w/Verse Fig. (4x)
-they awaken far far away
-heat of my candle show me the way
-seas of a thousand drawn to her sin
-Seasons of Wither holdin' me in

CHORUS

Bridge Fig. (4x)

Verse Fig. (first 3 measures only)

 Pre solo 
 |----------------|--------------------|-------------------------|
 |----------------|--------------------|-------------------------|         
 |----------------|--------------------|-------------------------|
 |--7--5--4-4^5-4-|--7^9-7--5--7--5----|10-9-7-9-7-5-------------|
 |----------------|------------------5-|--------------9--7--5----|
 |----------------|--------------------|-------------------------|

 |----------------|-------------------|--------------------------|
 |----------------|-------------------|--------------------------|
 |----------------|-------------------|--------------------------|
 |--7--5--4-4^5-4-|--7^9-7--5--7--5---|10-9-7-9-12--12-12--10-8--|
 |----------------|----------------5--|-------------------------8|
 |----------------|-------------------|--------------------------|


  SOLO 

--------------12------------------------------------------------------
-15-------15----------------------------15----------------------------
------------------14b16r14-12----14-----14b16r14--12------- 24 -------
-----------------------------------------------------------harmonic---
----------------------------------------------------------------------
----------------------------------------------------------------------
Apos o solo intro 4 vezes e termina em D
	  

Full key step upFull key step up
Half key step upHalf key step up
Half key step downHalf key step down
Full key step downFull key step down
Search Paypal
auto scroll beats size up size down change color hide chords drawings
tab show chords e-chords YouTube Clip e-chords hide all tabs e-chords go to top tab