Aerosmith

home > Aerosmith

Falling In Love Tab

Aerosmith

Difficulty: nolevelnolevel

tuner correct add songbook print version text version save to e-mail
chordsukulelecavacokeyboardtabbassdrummharmonicsflute Guitar Pro
chords

Falling In Love

Year: 1997 - Album: O, Yeah! Ultimate Aerosmith Hits

  		 
 
this riff is played over the chorus 
E-----------------------------------------------|---------------| 
B---------3----------3----------3-----------3---|--------3------| 
G------2----------2----------0-----------2------|-----0---------| 
D---0--------------------------------0----------|---------------| 
A-------------1----------3----------------------|--3------------| 
E-----------------------------------------------|------------3--| 

 
   guitar 2 is barely audible at first, but eventually this is played: 
   guitar 2- 
   E----------------------------15~~~~~~~~~~~~~~~~--| 
   B------------------------15----------------------| 
   G-------13~~~~~~~~~~-----------------------------| 
   D---12-------------------------------------------| 
   A------------------------------------------------| 
   E------------------------------------------------| 
    
bridge 
E-------------------------------------------------------------| 
B--9-------11--11--11---------9-------11-------11-----9-------| 
G--9-------11--11--11--11b--r-9-------11-------11b--r-9-------| 
D----10-10-----10--10-----------10-10----10-10----------10-10-| 
A-------------------------------------------------------------| 
E-------------------------------------------------------------| 
 
   E---------------------------------------------------| 
   G--11--------11b--r-9---------11-b-11--11----11b-r--| 
   D-----10-10-----------10-(10)-------------10--------| 
   A---------------------------------------------------| 
   E---------------------------------------------------| 

 
 (part of it) 
E---------------------------------------------------------------| 
B--15----15----15----15----15----15----15----15----15----15-----| 
G--18b-r-18b-r-18b-r-18b-r-18b-r-18b-r-18b-r-18b-r-18b-r-18b-r--| 
D---------------------------------------------------------------| 
A---------------------------------------------------------------| 
E---------------------------------------------------------------| 
 
E---------------------------------------------------------------| 
B-15----15------------------------------------------------------| 
G-18b-r-18b-r-18b---r---------1820-----18b-r----18b-r----------| 
D---------------------15------------18--------17-------15--(15)-| 
A---------------------------------------------------------------| 
E---------------------------------------------------------------| 
 
E-------------------------------------------| 
B--15~~~-13--15-------15--------------------| 
G---------------13----------13b-r----13-13--| 
D------------------15----15-------15--------| 
A-------------------------------------------| 
E-------------------------------------------|... 
This is where I get lost. When it slows down it looks like this: 
								  full bend 
E--15b--15r-13-15-13------21b--r----21b--r----21b--r----21b--r----21b--r| 
B--------------------15/---------20--------20--------20--------20-------| 
G-----------------------------------------------------------------------| 
 
 F G G  F# G# G#  G A A  G# A# A#  A B B A#
	  

Full key step upFull key step up
Half key step upHalf key step up
Half key step downHalf key step down
Full key step downFull key step down
Search Paypal
auto scroll beats size up size down change color hide chords drawings
tab show chords e-chords YouTube Clip e-chords hide all tabs e-chords go to top tab