Aerosmith

home > Aerosmith

Baby Please Don't Go Tab

Aerosmith

Difficulty: BeginnerBeginner

tuner correct add songbook print version text version save to e-mail
chordsukulelecavacokeyboardtabbassdrumsharmonicsflute Guitar Pro
chords

Baby Please Don't Go

Year: 2004 - Album: Honkin' On Bobo

  		 
Intro: 
 
e|-------------\15----------|6x 
B|-------------\15----------|                                             
G|-------9\12------12/9-----| 
D|-------9\12------12/9-----| 
A|-7~-----------------------| 
E|-0~-----------------------| 
 
Gtr I e II (lick1) 
e|---------------------------------------------------------------------------------------------------| 
B|---------------------------------------------------------------------------------------------------| 
G|-9-9~~-------8h10p8----------------8h10p8------9--9-9-----7----------------------------------------| 
D|--------8\10-------10p9-8~~---8\10--------10p9--------7\9---9-------7h9p7--------------------------| 
A|----------------------------------------------------------------7\9--------7(7)-7(7)--9p7-2p0------| 
E|----------------------------------------------------------------------------------------------3-0--| 
 
 
Gtr I 
e|--------------------------|4x 
B|--------------------------| 
G|------7-------------------| 
D|------7------2------------| 
A|------5------2------------| 
E|0--\-----/---0------------| na quarta vez segure Em(022)
 
Gtr II         on 2nd time                (on 4th time) 
  |----------------------palm mute--------------------| 
e|--------------------------|--------------------------| 
B|--------------------------|--------------------------| 
G|--------------------------|--------------------------| 
D|--------------------------|--------------------------| 
A|-------------2--2-2-------|-----------------22-2-2---| 
E|00200020002000200020002000|20002000200020002000200002|  -> riff1 (apenas esta corda, P.M., 0020002002...) 
 
Verse 1: 
   
Gtr I 
e|-----------------------------|-------------------------------| 
B|-----------------------------|-------------------------------| 
G|------------------7-7-7--7---|-------------7h9p7-------------| 
D|hold--------------7-7-7--7---|------------------9-7h9p7--9/--| 
A|hold--------------9-9-9--9---|-------------------------7-7/--| 
E|hold-------------------------|-------------------------------| 
 
GTr II (riff2) 
e|-----------------------------|-------------------------------| 
B|-----------------------------|-------------------------------| 
G|------------------7-7-7--7/--|-------------7---7---7-----7/--| 
D|------------------7-7-7--7/--|-------------7---7---7-----7/--| 
A|------------------9-9-9--9/--|-------------9---9---9-----9/--| 
E|-----------------------------|-------------------------------| 
 BABY PLEA' DON'T GO       BABY PLEA' DON'T GO 
 
 BABY PLEASE DON'T GO 
 DOWN TO NEW ORLEANS 
 YOU KNOW I LOVE YOU SO 
 BABY PLEASE DON'T GO 
 
Gtr I 
 
e|----12/---0---12/---0-----|2x 
B|----12/---0---12/---------| 
G|--------------------------| 
D|--------------------------| 
A|--------------------------| 
E|--------------------------| 
 
Gtr II = riff1 
 
Verso 2 
 
Gtr I                              Gtr II = riff2 
e|-----------------------------|------------------------------------------------| 
B|-----------------------------|------------------------------------------------| 
G|-----------------------------|-----------------9p7----------------------------| 
D|---------------------7bf-----|---------------------9-9--7-9p7-8p7-------9/----| 
A|-----------------------------|------------------------------------10-7--7/----| 
E|-----------------------------|------------------------------------------------| 
 WELL YOUR MAN DONE GONE   wELL YOUR MAN DONE GONE 
 YEAH YOUR MAN DONE GONE 
 DOWN TA COUNTY FARM 
 
e|-----------0--------------| 
B|-----------0--------------| 
G|-----------0--------------| 
D|--------------------------| 
A|--------------------------| 
E|--------------------------| 
 HE GOT THE SCHACKLES ON 
 BABY PLEASE DON'T GO AWAY 
 
Gtr I 
 
e|----12/---0---12/---0-----|2x 
B|----12/---0---12/---0-----| 
G|--------------------------| 
D|--------------------------| 
A|--------------------------| 
E|--------------------------| 
 
Gtr II = riff1 
 
verso 3 
 
Gtr I                         a.h.     Gtr II = riff2 
e|------------------------------------|------------------------------------------------| 
B|------------------------------------|----------------------------9/------------------| 
G|----------------9p7-----------------|-----------------9p7--------9/------------------| 
D|----------------9p7--9p8p7--9/------|-----------------9p7-9p8p7-----9/---------------| 
A|--------------------------7-7/------|--------------------------7----7/---------------| 
E|------------------------------------|------------------------------------------------| 
BEFORE I BE THE DOG                    BEFORE I BE THE DOG   YEAH 
BEFORE BEIN' THE DOG 
GET YOU'RE WEIGHT OUT HERE 
I'LL MAKE YA WALK IT'LL OFF 
BABY PLEASE DON'T GO AWAY 
 
Well all right 
 
Gtr I e II (lick1) 
 
E5 G5 A5 C5 E5(7ª casa)/ 
 
oow 
BABY PLEASE DON'T GO 
BABY PLEASE DON'T GO 
BABY PLEASE DON'T GO 
DOWN TO NEW ORLEANS 
YOU KNOW I LOVE YOU SO  
                          |-4x-|    
e|--------------------------------| 
B|--------------------------------| 
G|--------------------7/--7-7-7---| 
D|--------------------7/--7-7-7---| 
A|--------------------9/--9-9-9---| 
E|--------------------------------| 
BABY PLEASE DON'T GO 
 
                  |palm mute| 
e|--------------------------------|5x 
B|---------------------------7----| 
G|------------------7-7-7-7--7----| 
D|------------------7-7-7-7--7----| 
A|------------------9-9-9-9-------| 
E|--------------------------------| 
Now I feel right now 
  My baby's leavin' 
  On that midnight train 
  And i'm dyin' dyin' 
  Dyin' dyin' dyin' 
  I'm dyin' i'm dyin' I'm dyin' 
e|-----------------------12-------|4x 
B|-----------------------12-------| 
G|-----------------------13-------| 
D|-----------------------14-------| 
A|-----------------------14-------| 
E|-----------------0-----12-------| 
I'm dy-dy-dy-dy-ri-right now 
                   right now 
                   right now 
                   right now 
 
Uma oitava acima(12ª casa): 
Gtr II 
E5 G5 A5 C5 
 
Gtr I  (falta a primeira parte do solo)                                     let ring------------------------| 
      e|------------------------------------------------------------------|----------------------------------| 
      B|---15bfp12-15bfp12-15bfp12-15bfp12-15bfp12-15bfp12-15bfp12-15bfp12|----------------------------------| 
      G|------------------------------------------------------------------|----------------------------------| 
      D|------------------------------------------------------------------|----------------------------------| 
      A|------------------------------------------------------------------|----------------------------------| 
      E|------------------------------------------------------------------|-0---------------0----------------| 
       
e|17fbr-17fbr-17fbr-17fbr-17fbr-17fbr-17fbr-17fbr-17fbr-17fbr|17fb-17fb-17fb-17fb-17fb-20-202020202020fb-20fb---| 
B|-----------------------------------------------------------|--------------------------------------------------| 
G|-----------------------------------------------------------|--------------------------------------------------| 
D|-----------------------------------------------------------|--------------------------------------------------| 
A|-----------------------------------------------------------|--------------------------------------------------| 
E|-----------------------------------------------------------|--------------------------------------------------| 
 
 
Gtr I 
 
e|----12/---0---12/---0-----|4x 
B|----12/---0---12/---0-----| 
G|--------------------------| 
D|--------------------------| 
A|--------------------------| 
E|--------------------------| 
 
Gtr II = riff1 
 
 
Gtr I               Gtr II = riff1 
e|----------------------|---------------------15p14p12-15p14p12-15p14p12-15p14p12-15p14p12-15p14p12-15p14p12-15p14p12-| 
B|----------------------|---------------------------------------------------------------------------------------------| 
G|----------------------|---------------------------------------------------------------------------------------------| 
D|------------------7fb-|---------------------------------------------------------------------------------------------| 
A|----------------------|---------------------------------------------------------------------------------------------| 
E|----------------------|---------------------------------------------------------------------------------------------| 
BABY PLEASE DON'T GO      BABY PLEASE DON'T GO                                                    
 
e|-----15-----12----12-----------------------------------------------------------------------------------------------| 
B|----------------------15---12-15--15--15b--15p12-------------------------------------------------------------------| 
G|-------------------------------------------------------14---14--14-12-1412- 14brp12--------------------------------| 
D|---------------------------------------------------------------------------------------14/-------------------------| 
A|-------------------------------------------------------------------------------------------------------------------| 
E|-------------------------------------------------------------------------------------------------------------------| 
  BABY PLEASE DON'T GO  DOWN TA NEW ORLEANS  YOU KNOW I  LOVE YOU SO    BABY  PLEA DON'T GO AWAY 
 
e|--------------------------------|4x 
B|--------------------------------| 
G|--7-5-5--7--5--7----------------| 
D|--7-5-5--7--5--7----------------| 
A|--------------------------------| 
E|--------------------------------| 
 
YEAH 
  yeah 
YEAH 
  yeah 
WELL ALRIGHT ALRIGHT ALRIGHT 
 
Gtr I 
e|----------------------------------------------------------------------------------------------------------------------| 
B|----------------------------------------------------------------------------------------------------------------------| 
G|-9--9~~--------8h10p8-------------------8h10p8---------9---9--9------7------------------------------------------------| 
D|--------8\10-----------10p9-8~~-----8\10---------10p9-----------7\9----9--------7h9p7---------------------------------| 
A|-------------------------------------------------------------------------7\9------------7(7)---7(7)----9p7---2p0------| 
E|----------------------------------------------------------------------------------------------------------------3--0--| 
 
Gtr II 
e|----------------------------------------------------------------------------------------------------------------------| 
B|-17-17~~-------16h18p16------------------16h18p16------17--17-17-----15-----------------------------------------------| 
G|--------15\17----------17p16-15~~---15\17--------17p16----------14\16--16-------14h16p14------------------------------| 
D|-------------------------------------------------------------------------14\16----------14(14)-14(14)--16p14-9p7------| 
A|----------------------------------------------------------------------------------------------------------------10----| 
E|-------------------------------------------------------------------------------------------------------------------0--| 
 
 
 
 
Vou terminar logo, ainda faltam alguns detalhes e po começo do solo. 
 
 
_______________________________________________________ 
Contribuição: Raphael de Souza Mattos([email protected]) 

	  

Full key step upFull key step up
Half key step upHalf key step up
Half key step downHalf key step down
Full key step downFull key step down
Search Paypal
auto scroll beats size up size down change color hide chords drawings
tab show chords e-chords YouTube Clip e-chords hide all tabs e-chords go to top tab