Aeropajitas

Exterminio

Aeropajitas

tabs

by  TARIKIKE

save to print version add songbook text version e-mail correct tuner
chordsukulelecavacokeyboardtabbassdrumsharmonicaflute Guitar Pro
close

there isn't a video lesson for this song

chords

Exterminio

	  		Intro 

e|-----------------|      |---------| 
B|-----------------|      |---------| 
G|-----------------|      |---------| 
D|---5---7-7--5-7--|      |---7--5--| 
A|---5---7-7--5-7--|      |---7--5--| 
E|---3---5-5--3-5--| (x3) |---5--3--| 


D|---5---7-7--5-7--| 
A|---5---7-7--5-7--| 
E|---3---5-5--3-5--| 
   
La Historia se repite 

D|---5---7-7--5-7--| 
A|---5---7-7--5-7--| 
E|---3---5-5--3-5--| 
   
El futuro no es ninguno 

D|---5---7-7--5-7--|    |---7--5--| 
A|---5---7-7--5-7--|    |---7--5--| 
E|---3---5-5--3-5--|    |---5--3--| 
   
Dale cuerda a tu brazo... 


G|------------9-9--10-10--| 
D|---7-7-7-7--9-9--10-10--| 
A|---7-7-7-7--7-7--8--8---| 
E|---5-5-5-5--------------| (x4) 


{durante las estrofas se repite =} 

G|------------9-9--10-10--| 
D|---7-7-7-7--9-9--10-10--| 
A|---7-7-7-7--7-7--8--8---| 
E|---5-5-5-5--------------| 
  estado de emergencia y conspiracion 
  el terror violento.. 
  
  todo esta obscuro, electroshock 
  no hay salida!!  

G|------------9-9--10-10---9-9-9-9--10-10-10-10| 
D|---7-7-7-7--9-9--10-10---9-9-9-9--10-10-10-10| 
A|---7-7-7-7--7-7--8--8----7-7-7-7--8--8--8--8-| 
E|---5-5-5-5-----------------------------------|  (x2) 

G|------------9-9--10-10--| 
D|---7-7-7-7--9-9--10-10--| 
A|---7-7-7-7--7-7--8--8---| 
E|---5-5-5-5--------------| (x4) 


G|------------9-9--10-10--| 
D|---7-7-7-7--9-9--10-10--| 
A|---7-7-7-7--7-7--8--8---| 
E|---5-5-5-5--------------| 
  No, policia no, policia no, policia no, policia!! 

G|------------9-9--10-10--| 
D|---7-7-7-7--9-9--10-10--| 
A|---7-7-7-7--7-7--8--8---| 
E|---5-5-5-5--------------| 
  Contra enemigo, agitación!! 
  Contra el encierro, libertad!!  {acaba en A
		  

See also:

tabs Libido - Reset tabs Aeropajitas - Kaer tabs Amen - Rock And Roll tabs Libido - Esther Fes tabs Libido - Eterno tabs Amen - San Pedro
e-chords

Other versions:

tabs Aeropajitas - Exterminio
auto scroll beats size up size down change color hide chords drawings
tab show chords e-chords YouTube Clip e-chords hide all tabs e-chords go to top tab

share