Adoração e Vida

home > Adoração e Vida

O Céu Se Abre Tab

Adoração e Vida

Difficulty: ExpertExpert

by reynalty

tuner correct add songbook print version text version save to e-mail
chordsukulelecavacokeyboardtabbassdrumsharmonicsflute Guitar Pro
chords

O Céu Se Abre

(Gilberto Monteiro)

  		O céu se abre 

Introdução 

E ------------------------------------------------------------------ 
B ---------4-----4----------------12-12-14-16--------16------------- 
G -4-4-6------3---------------------------------15--------13—9/11--- 
D -------------------6-9-8-6-4-------------------------------------- 
A ------------------------------------------------------------------ 
E ------------------------------------------------------------------ 

Ou se preferir 

E ----------------------------------7-7-9-11--------11--------------- 
B -------2-4-----4-----------------------------11---------9-5/7------ 
G –4-4--------3------1-4-3-1----------------------------------------- 
D -----------------------------4------------------------------------- 
A ------------------------------------------------------------------- 
E ------------------------------------------------------------------- 

Base : BB7mB/D# - E – E9G#mF# - B/D# - E – E9 
	  

Full key step upFull key step up
Half key step upHalf key step up
Half key step downHalf key step down
Full key step downFull key step down
Search Paypal
auto scroll beats size up size down change color hide chords drawings
tab show chords e-chords YouTube Clip e-chords hide all tabs e-chords go to top tab