Adoração e Vida

home > Adoração e Vida

Hoje Livre Sou Tab

Adoração e Vida

Difficulty: BeginnerBeginner

by reynalty

tuner correct add songbook print version text version save to e-mail
chordsukulelecavacokeyboardtabbassdrumsharmonicsflute Guitar Pro
chords

Hoje Livre Sou

(Rodrigo Pires / Walmir Alencar)

  		Introdução: 
E --------------------------8-6-5^6------------------ 
B ----6/8/10------10-8-6-6-----------6-------6-5-6--- 
G –5------------------------------------5-5---------- 
D -----------10-------------------------------------- 
A --------------------------------------------------- 
E --------------------------------------------------- 

Solo do meio : 

E ---------------6/8-8-8/10-8------8-8-10-10/13-13-13/17-17-18-17-15----18/20-20--------------15^17^18-17-15-17------ 
B –10-11-10-8-6----------------11------------------------------------18-----------15^17^18-18--------------------17~~ 
G ------------------------------------------------------------------------------------------------------------------- 
D ------------------------------------------------------------------------------------------------------------------- 
A ------------------------------------------------------------------------------------------------------------------- 
E ------------------------------------------------------------------------------------------------------------------- 
	  

Search Paypal
auto scroll beats size up size down change color hide chords drawings
tab show chords e-chords YouTube Clip e-chords hide all tabs e-chords go to top tab