Aditive

Go McGary Go!

Aditive

tabs

save to print version add songbook text version e-mail correct tuner
chordsukulelecavacokeyboardtabbassdrumsharmonicaflute Guitar Pro
close

there isn't a video lesson for this song

chords

Go McGary Go!

	  		>1ª Guitarra 
e|----------------------------------------------| 
B|----------------------------------------------| 
G|----------------------------------------------| 
D|3~---------------------5-6---------8-1010-----| 
A|3~---------------------5-6---------8-1010-----| 
E|1~---------------------3-4---------6-8-8------| 
 
2ª Guitarra - riff 1 
e|----------------------------------------------| 
B|----------------------------------------------| 
G|----------------------------------------------| 
D|3-5-6-6-6-6-8-10101010-3-5-6-6-6-6-8-10101010-| 
A|3-5-6-6-6-6-8-10101010-3-5-6-6-6-6-8-10101010-| 
E|1-3-4-4-4-4-6-8-8-8-8--1-3-4-4-4-4-6-8-8-8-8--| 
                                     Vai Gary GOOOOOO!!! 
 
1ª e 2ª Guitarra - riff 1 
e|----------------------------------------------| 
B|----------------------------------------------| 
G|----------------------------------------------| 
D|3-5-6-6-6-6-8-10101010-3-5-6-6-6-6-8-10101010-|X2 
A|3-5-6-6-6-6-8-10101010-3-5-6-6-6-6-8-10101010-| 
E|1-3-4-4-4-4-6-8-8-8-8--1-3-4-4-4-4-6-8-8-8-8--| 
 
1ª e 2ª Guitarra - riff 2 
e|---------------------------------------------------------| 
B|---------------------------------------------------------| 
G|5-5-------------------------5-5--------------------------| 
D|5-55-6-6-6-6-8-8-8-8-3-3-3-35-55-6-6-6-6-8-8-8-8-3-3-3-3--| 
A|3-35-6-6-6-6-8-8-8-8-3-3-3-33-35-6-6-6-6-8-8-8-8-3-3-3-3--| 
E|---3-4-4-4-4-6-6-6-6-1-1-1-1---3-4-4-4-4-6-6-6-6-1-1-1-1--| 
 
              O QUE EU SEMPRE PRECISEI, FOI UM POUCO DE ATENÇÃO!!! 
 
1ª e 2ª Guitarra - riff 1 
e|----------------------------------------------| 
B|----------------------------------------------| 
G|------------------------------------------5~--| 
D|3-5-6-6-6-6-8-10101010-3-5-6-6-6-6-8-1010-----| 
A|3-5-6-6-6-6-8-10101010-3-5-6-6-6-6-8-1010-----| 
E|1-3-4-4-4-4-6-8-8-8-8--1-3-4-4-4-4-6-8-8------| 
 
 
_______________________________________________________ 
Contribuição: Marcelo([email protected]) 

		  

See also:

tabs Tequila Baby - 51 tabs Nx Zero - Uma Chance tabs Street Bulldogs - Adolf tabs CPM 22 - A Velha História tabs Blind Pigs - Conformismo e Resistência tabs CPM 22 - 1 minuto para o fim do mundo (solo inicial)
e-chords

Other versions:

tabs Aditive - Go McGary Go!
auto scroll beats size up size down change color hide chords drawings
tab show chords e-chords YouTube Clip e-chords hide all tabs e-chords go to top tab

share