Acid Bath

home > Acid Bath

Scream Of A Butterfly Tab

Acid Bath

Difficulty: nolevelnolevel

by Shaggmire

tuner correct add songbook print version text version save to e-mail
chordsukulelecavacokeyboardtabbassdrumsharmonicsflute Guitar Pro
chords

Scream Of A Butterfly

  		Scream Of A Butterfly 
-Acid Bath 

Tuning: (low to high) 
D-G-C-F 

Intro: 

 F|-----9--5-----7--5--4--------|----------------------------| 
 C|--7--------7-----------5--7--|-----9--5-----7--5--4-------| 
 G|-----------------------------|--7--------7-----------5--7-| 
 D|-----------------------------|----------------------------| 

Verse: 

 F|-----10--9----------10--9----------10--9------12--10---9--9------| 
 C|--7---------10---7---------10---7---------10-----------------10--| 
 G|-----------------------------------------------------------------| 
 D|-----------------------------------------------------------------| 

Bridge: 

 F|----------------------------7--5--4--------------------------------------| 
 C|-----------------------------------------------------------------7--5--4-| 
 G|--0---0--0----3--3--2--2-------------------------------------------------| 
 D|---------------------------------------0---0--0----3--3--2--2------------| 

Chorus: 

 F|---------------------------------------| 
 C|---------2-----0-----------------------| 
 G|--0---0-----3-----2---------2-----0----| 
 D|---------------------0---0-----3-----2-| 

Outro: 

 F|------------9--9---5--5------------7---7---5--5--4--4----------- 
 C|---7--7--------------------7--7---------------------------5--5-- 
 G|---------------------------------------------------------------- 
 D|---------------------------------------------------------------- 

 F|----------------------------------------------------------| 
 F|----------------9--9--5--5--------7--7--5--5--4--4--------| 
 G|--5--5---7--7---------------7--7---------------------5--5-| 
 D|----------------------------------------------------------| 



	  

Search Paypal
auto scroll beats size up size down change color hide chords drawings
tab show chords e-chords YouTube Clip e-chords hide all tabs e-chords go to top tab