Accept

Ahead Of The Pack

Accept

tabs

by  PAULRR_

save to print version add songbook text version e-mail correct tuner
chordsukulelecavacokeyboardtabbassdrumsharmonicaflute Guitar Pro
close

there isn't a video lesson for this song

chords

Ahead Of The Pack

	  		..  - palm mute          /  - slide up to 
 \  - slide down to      ~  - vibrato 
 h  - hammer on          b  - bend 
 p  - pull off            Suffixes for bend 
                          ph - pinch harmonic 
                           f - full bend    h - half bend 
*  - see comment           r - release      t - tap bend 
X  - percussion mute       ~ - vibrato bend 
@  - slight palm mute     () - ghost note, sustained note 

Tune Gtr to E 


Riff A.1 
|------------------------------| 
|------------------------------| 
|---------------------2--------|  
|------------------2--2--------|  
|------------------0--0--------| 
|--0000-0000-3-2-0-------3-2---| 
         
Riff A.2                                              
|------------------------------| 
|------------------------------| 
|---------------------7--------|  
|------------------7--7--------|  
|------------------5--5--------| 
|--0000-0000-3-2-0-------3-2---| 

Riff A.3 
|----------------------------------------------------| 
|----------------------------------------------------| 
|------------------5---------------------77-6--------| 
|------------------5---------------------55-4--------|  
|------------------3---------------------------------| 
|--0000-0000-3-2-0-----0-3-2-0-3-2-0-3---------------| 

Riff B.1       
|------------------------------------| 
|------------------------------------| 
|--2-----------5-------------10------| 
|--2-----------5-2-----------10-2----|  
|--0-0000-0000-3-0-0000-0000-8--0----| 
|------------------------------------| 

Riff B.2 





|--------------------------------------------------| 
|--------------------------------------------------| 
|--2-----------5------------------------2--9-------| 
|--2-----------5-2------------3--2---5--2--9-------| 
|--0-0000-0000-3-0-0000-0000--3--2---5--0--7-------| 
|-----------------------------1--0---3-------------| 

Riff C 
|---------------------| 
|---------------------| 
|---------------------| 
|--9-9--99--5--7------| 
|--9-9--99--5--7------| 
|--7-7--77--3--5------| 

Riff D 
|--------------| 
|--------------| 
|--------------| 
|--------------| 
|--------------| 
|--2222-2222---| 

Riff E 
|--------------------------------------------------------------------| 
|--------------------------------------------------------------------| 
|--------------------------------------------------------------------| 
|--------------------------------------------------------------------| 
|--99-7-9--7-9-7-9-7--99-7--7-9-7-5-4--99-7-9--7-9-7-9-7----5-4------| 
|--77-5-7--5-7-5-7-5--77-5--5-7-5-3-2--77-5-7--5-7-5-7-5----3-2------| 

Riff F 
|-----------------------------| 
|-----------------------------| 
|-----------------------------| 
|-----------------------------| 
|------------5/4-5/4--5-7-----| 
|--2222-2222-3/2-3/2--3-5-----| 

Riff G 
|----------------| 
|----------------| 
|----------------| 
|--5--3----------| 
|--5--3--3-5-7---| 
|--3--1--1-3-5---| 

Riff H 
|--------------------------| 
|--------------------------| 
|--------------------------| 
|--------------------------| 
|-----------------8--6--5--| 
|--3333-3333-3333-6--4--3--| 

Riff I 
|----------------------------------| 
|----------------------------------| 
|-----------------------------10---| 
|--7-----------10-7-----------8----| 
|--5-5555-5555-8--5-5555-5555------| 
|----------------------------------| 

Riff J 
|-----------------------------------------------| 
|-----------------------------------------------| 
|-----------------------------------------------| 
|-----------------------------------------------| 
|--2--4-5--4-2-4--5-4--2--0-----5---------------| 
|----------------------------3-----2222-2222----| 

Riff K 




|-------------------------------------------| 
|-------------------------------------------| 
|-------------------------------------------| 
|--66-4-6--4-6-4-6-4---66-4-6--4-6-4--------| 
|--44-2-4--2-4-2-4-2---44-2-4--2-4-2--7-6---| 
|-------------------------------------5-4---| 

Riff L 
|---------------------------------| 
|---------------------------------| 
|----------------------------8----| 
|--88-6-8--6-8-6-8-6----88-6-8----| 
|--66-4-6--4-6-4-6-4----66-4-6----| 
|---------------------------------| 


		  

Full key step upFull key step up
Half key step upHalf key step up
Half key step downHalf key step down
Full key step downFull key step down
hide glossary

See also:

tabs Scorpions - I wanted to cry tabs Helloween - Halloween tabs Scorpions - Alien Nation tabs Scorpions - Rock You Like a Hurricane tabs Scorpions - Deep and Dark tabs Edguy - Down to the Devil
e-chords

Other versions:

tabs Accept - Ahead Of The Pack
auto scroll beats size up size down change color hide chords drawings
tab show chords e-chords YouTube Clip e-chords hide all tabs e-chords go to top tab

share