Abigail Williams

Conqueror Wyrm

Abigail Williams

tabs

by  FERNSANTANA

save to print version add songbook text version e-mail correct tuner
chordsukulelecavacokeyboardtabbassdrumsharmonicaflute Guitar Pro
close

there isn't a video lesson for this song

chords

Conqueror Wyrm

	  		

Key: 
~ Let note ring 
/ Slide up 
\ Slide down 
* Palm mute 
p Pull off 
h Hammer on 

Intro: 

Guitars I&II 
 
---------------------------------------------------| 
---------------------------------------------------| 
---------------------------------------------------| 
--0~~~2~3~5~~~8~7~3~~~7~~~-------------------------| 
--0~~~2~3~5~~~8~7~3~~~7~~~-----------10p8p7--------| 
--0~~~2~3~5~~~8~7~3~~~7~~~8888777888---------------| 
 
                                                      
|***p.m.***| 
 

 
---------------------------------------------------| 
---------------------------------------------------| 
---------------------------------------------------| 
--0~~~2~3~5~~8~~7~3~~~7~~~-------------------------| 
--0~~~2~3~5~~8~~7~3~~~7~~~-----------10p8p7--------| 
--0~~~2~3~5~~8~~7~3~~~7~~~8888777888---------------| 
 
                                                      
|***p.m.***| 
 

 
-------------| 
-------------| 
-------------| 
--0~~~////---| 
--0~~~////---| 
--0~~~////---| 
 

verse 1: 

Part A Guitar I 
 
---------------------------------------------------------------------------| 
---------------------------------------------------------------------------| 
---------------------------------------------------------------------------| 
---------------------------------------------------------------------------| 
--8---8---8---8----7---7---7---7---8---8----8---8--------------------------| 
---000-000-000-000-000-000-000-000-000-000-000-0003000300020002000---------| 
 
      ***   ***    ***   ***    ***  ***    ***   ***   ***   ***    ***   ***   ***   ******    *** 


 
----------------------------------------------------------------------| 
----------------------------------------------------------------------| 
----------------------------------------------------------------------| 
--------------------------------------8h10p8------7h8p7---------------| 
--8---8---8----8---7---7---7---788888-------77777-----5555588888------| 
---000-000-000-000-000-000-000----------------------------------------| 
 
      ***   ***    ***   ***   ***   ***    ***   *****               *****            ********** 

Part A Guitar II 
 
---------------------------------------------------------------------------| 
---------------------------------------------------------------------------| 
---------------------------------------------------------------------------| 
---------------------------------------------------------------------------| 
--8---8---8---8----7---7---7---7---8---8----8---8--------------------------| 
---000-000-000-000-000-000-000-000-000-000-000-0003000300020002000---------| 
 
      ***   ***    ***   ***    ***  ***    ***   ***   ***   ***    ***   ***   ***   ******    *** 


 
----------------------------------------------------------------------| 
----------------------------------------------------------------------| 
----------------------------------------------------------------------| 
--------------------------------------8h10p8------7h8p7---------------| 
--8---8---8----8---7---7---7---788888-------77777-----5555588888------| 
---000-000-000-000-000-000-000----------------------------------------| 
 
      ***   ***    ***   ***   ***   ***    ***   *****               *****            ********** 


Part B Guitar I 
 
---------------------------------------------------------------------------| 
---------------------------------------------------------------------------| 
---------------------------------------------------------------------------| 
---------------------------------------------------------------------------| 
--8---8---8---8----7---7---7---7---8---8----8---8--------------------------| 
---000-000-000-000-000-000-000-000-000-000-000-0003000300020002000---------| 
 
      ***   ***    ***   ***    ***  ***    ***   ***   ***   ***    ***   ***   ***   ******    *** 


 
----------------------------------------------------------------------| 
----------------------------------------------------------------------| 
----------------------------------------------------------------------| 
--------------------------------------8h10p8------7h8p7---------------| 
--8---8---8----8---7---7---7---788888-------77777-----5555588888------| 
---000-000-000-000-000-000-000----------------------------------------| 
 
      ***   ***    ***   ***   ***   ***    ***   *****               *****            ********** 


Part B Guitar II 
 
--------------------------------------------------------------------------------| 
--------------------------------------------------------------------------------| 
--------------------------------------------------------------------------------| 
--------------------------------------------------------------------------------| 
-12---12---12---12---10---10---10---10---12---12---12---12----------------------| 
---000--000--000--000--000--000--000-000--000--000--000--0003000300020002000----| 
 
      ***     ***     ***     ***      ***     ***    ***     ***      ***    ***       


 
------------------------------------------------------------------------------| 
------------------------------------------------------------------------------| 
------------------------------------------------------------------------------| 
---------------------------------------------8h10p8------7h8p7----------------| 
-12---12---12---12---10---10---10----788888-------77777------5555588888-------| 
---000--000--000--000--000--000--000------------------------------------------| 
 
      ***     ***     ***     ***     ***      ***     ***   ***** 
            ********** 


Bridge: 

Guitar I 
 
----------------------------------------------------------------------| 
----------------------------------------------------------------------| 
--7~~~/10~\9~\7~~~\3~~~/12~\10~\9~~~~~--------------------------------| 
----------------------------------------------------------------------| 
----------------------------------------------------------------------| 
----------------------------------------------------------------------| 
 

Guitar II 
 
----------------------------------------------------------------------| 
----------------------------------------------------------------------| 
----------------------------------------------------------------------| 
--0~~~000-0-0~~~~~~5~~~555-5-5~~~~~~~---------------------------------| 
--0~~~000-0-0~~~~~~5~~~555-5-5~~~~~~~---------------------------------| 
--0~~~000-0-0~~~~~~5~~~555-5-5~~~~~~~---------------------------------| 
 


Chorus: 

Guitar I 
 
--------------------------------------------------------------------------| 
--------------------------------------------------------------------------| 
-----------------------------------------10-10----------------------------|   x4 
-------------14-14-10-10----------------------10-10-8-8-------------------| 
----12-8-12-8-----------12-12--12-8-12-8----------------------------------| 
--00-------------------------88-------------------------------------------| 
 

Guitar II 
---------------------------------------------------------------------------| 
---------------------------------------------------------------------------| 
---------------------------------7-7---------------------------------------|   x4 
-----------10-10-7-7----------------7-7-5-5--------------------------------| 
----8-5-8-5---------8-8--8-5-8-5-------------------------------------------| 
--00-------------------88--------------------------------------------------| 
		  

Full key step upFull key step up
Half key step upHalf key step up
Half key step downHalf key step down
Full key step downFull key step down
hide glossary

See also:

tabs Ira! - Poço de Sensibilidade (Solo - Acustico Mtv) tabs Deep Purple - Gypsy Kiss tabs Ira! - Envelheço na Cidade (intro) tabs Deep Purple - Smoke on the Water (solo) tabs Ira! - Eu Quero Sempre Mais (Com Pitty, intro) tabs Ira! - Prisão das Ruas
e-chords

Other versions:

tabs Abigail Williams - Conqueror Wyrm
auto scroll beats size up size down change color hide chords drawings
tab show chords e-chords YouTube Clip e-chords hide all tabs e-chords go to top tab

share