Abandoned By Bears

You Need To Stick Up

Abandoned By Bears

tabs

by  SABRJOAO

save to print version add songbook text version e-mail correct tuner
chordsukulelecavacokeyboardtabbassdrumsharmonicaflute Guitar Pro
close

there isn't a video lesson for this song

chords

You Need To Stick Up

	  		

Intro 

-------------------------------------------------------| 
-------------------------------------------------------| 
-------------------------------------------------------|X2 
0000-00000-00--99-0--5555----0000-0000-00--44-5555-----| 
0000-00000-00--99-0--5559----0000-0000-00--44-5559-----| 
0000-00000-00--99-0--5555----0000-0000-00--44-5555-----| 
After you play intro twice, end with 0 

Verse 

--------------------------------------------------------| 
--------------------------------------------------------| 
--------------------------------------------------------|X3 
--------------------------------------------------------| 
000000-000-00-000000-00000000--0000--000--000--005--007-| 
000000-000-00-000000-00000000--0000--000--000--005--007-| 


Chorus 
Again, try and listen to the song.  Might of messed up with the amount you have to play  
with the x's! Hammers on's toward the end. 
-------------------------------------------------------| 
-------------------------------------------------------| 
16X----10X---2X----------------------------------------| 
5------4-----0-----------------------------------------| 
5------4-----0--------00000000--000--000----4 5--------| 
5------4-----0--------00000000--000--000--0H4 5--------| 


Continuing Chorus 
-------------------------------------------------------| 
-------------------------------------------------------| 
-------------------------------------------------------| 
00000000--000--0-0--0000-------------------------------| 
00000000--000--0-0--0000----55555555---444444444-------| 
00000000--000--0-0--0000----55555555---444444444-------| 




Repeat Intro 
-------------------------------------------------------| 
-------------------------------------------------------| 
-------------------------------------------------------|X4 
0000-00000-00--99-0--5555----0000-0000-00--44-5555-----| 
0000-00000-00--99-0--5559----0000-0000-00--44-5559-----| 
0000-00000-00--99-0--5555----0000-0000-00--44-5555-----| 



Verse B 
-------------------------------------------------------| 
-------------------------------------------------------| 
-------------7--9--11-9--------------------------------|X2 
-------------------------------------------------------| 
555--0--000--5--7--9--7---555--0--000--00--00--00------| 
555--0--000---------------555--0--000--00--00--00------| 


Repeat Chorus 
-------------------------------------------------------| 
-------------------------------------------------------| 
16X----10X---2X----------------------------------------| 
5------4-----0-----------------------------------------| 
5------4-----0--------00000000--000--000----4 5--------| 
5------4-----0--------00000000--000--000--0H4 5--------| 


Bridge 
---------------------------------------------------------| 
---------------------------------------------------------| 
---------------------------------------------------------|X2 
---------------------------------------------------------| 
5-0--000-00--5--0-00000000--5--0--000--00--5-0--000--000-| 
5-0--000-00--5--0-00000000--5--0--000--00--5-0--000--000-| 

Not quite sure on this part, but this is what I think it is! 
2nd Part 
-------------------------------------------------------| 
-------------------------------------------------------| 
-------------------------------------------------------| 
0------------------------------------------------------| 
0--005--009--7-0-5-00-4-0------------------------------| 
0--005--009--7-0-5-00-4-0------------------------------| 

Almost Outro 
-------------------------------------------------------| 
-------------------------------------------------------| 
-------------------------------------------------------| 
-------------------------------------------------------| 
00-0000-0-00000-00-0000-0------------------------------| 
00-0000-0-00000-00-0000-0------------------------------| 



Outro 
-------------------------------------------------------| 
-------------------------------------------------------| 
-------------------------------------------------------|X2 
-------------------------------------------------------| 
00-0000-0-00000-00-0000-0------------------------------| 
00-0000-0-00000-00-0000-0------------------------------| 

Continue! 
-------------------------------------------------------| 
-------------------------------------------------------| 
-------------------------------------------------------| 
-------------------------------------------------------| 
00-000----4 5--00--5--000000--00-0----4 5-00--5--00000-| 
00-000--H 4 5--00--5--000000--00-0--H 4 5-00--5--00000-| 


Continue 
-------------------------------------------------------| 
-------------------------------------------------------| 
-------------------------------------------------------| 
-------------------------------------------------------| 
00-0000-0-00000-00-0000-0------------------------------| 
00-0000-0-00000-00-0000-0------------------------------| 


-------------------------------------------------------| 
-------------------------------------------------------| 
-------------------------------------------------------| 
-------------------------------------------------------| 
00-000----4 5--00--5-----------------------------------| 
00-000--H 4 5--00--5-----------------------------------| 


End 
-------------------------------------------------------| 
-------------------------------------------------------| 
-------------------------------------------------------| 
-------------------------------------------------------| 
00-00000-----------------------------------------------| 
00-00000-----------------------------------------------| 
		  

Full key step upFull key step up
Half key step upHalf key step up
Half key step downHalf key step down
Full key step downFull key step down
hide glossary

See also:

tabs Chickenfoot - No Change tabs Chickenfoot - Last Temptation tabs Kylesa - Unknown Awareness tabs Kylesa - To Walk Alone tabs Chickenfoot - Dubai Blues
e-chords

Other versions:

tabs Abandoned By Bears - You Need To Stick Up
auto scroll beats size up size down change color hide chords drawings
tab show chords e-chords YouTube Clip e-chords hide all tabs e-chords go to top tab

share