Abandoned By Bears

Speechless?

Abandoned By Bears

tabs

by  JOAOEWERTON

save to print version add songbook text version e-mail correct tuner
chordsukulelecavacokeyboardtabbassdrumsharmonicaflute Guitar Pro
close

there isn't a video lesson for this song

chords

Speechless?

	  		

Verse / INTRO 

-------------------------------------------------------| 
-------------------------------------------------------| 
-------------------------------------------------------| 
-------------------------------------------------------| 
0000000000000000-5555555555555555----------------------| 
0000000000000000-5555555555555555----------------------| 

-------------------------------------------------------| 
-------------------------------------------------------| 
-------------------------------------------------------| 
-------------------------------------------------------| 
0----------------5-------5-----------------------------| 
0----------------5-------5-----------------------------| 

Chorus x2 

-------------------------------------------------------| 
-------------------------------------------------------| 
-------------------------------------------------------| 
-------------------------------------------------------| 
12121212121212121212--9-9-9-9-9-9-9-9-9-9--------------| 
9-9-9-9-9-9-9-9-9-9---5-5-5-5-5-5-5-5-5-5--------------| 

-------------------------------------------------------| 
-------------------------------------------------------| 
-------------------------------------------------------| 
-------------------------------------------------------| 
-------------------------------------------------------| 
12/-0000000--0000-0-0--12/-0000000--0000-0-0-----------| 

verse 2 x2 

-------------------------------------------------------| 
-------------------------------------------------------| 
-------------------------------------------------------| 
-------------------------------------------------------| 
-------------------------------------------------------| 
12-0-000-0-0-000-0-0-000-11-11-12----------------------| 

-------------------------------------------------------| 
-------------------------------------------------------| 
-------------------------------------------------------| 
-------------------------------------------------------| 
-------------------------------------------------------| 
12-0-000-0-0-000-0-0-000-9-9-11------------------------| 

Breakdown 

-------------------------------------------------------| 
-------------------------------------------------------| 
-------------------------------------------------------| 
-------------------------------------------------------| 
0-----00000-----0-0-0-0-----00000-----0-0-0-x----------| 
0-----00000-----0-0-0-0-----00000-----0-0-0-x----------| 

-------------------------------------------------------| 
-------------------------------------------------------| 
-------------------------------------------------------| 
-------------------------------------------------------| 
------00000-----0-0-0-0-------0------------------------| 
------00000-----0-0-0-0---00000--00000-00-00-000-000---| 

verse 3 

-------------------------------------------------------| 
-------------------------------------------------------| 
-------------------------------------------------------| 
-------------------------------------------------------| 
--4/5-------------------------4/5-------------5--------| 
0-----0---000-000-000-0000--0-----0---000-000--5-------| 

-------------------------------------------------------| 
-------------------------------------------------------| 
-------------------------------------------------------| 
-------------------------------------------------------| 
1212-1212-12--9-9--9-9--9------------------------------| 
9-9--9-9--9---5-5--5-5--5------------------------------| 

-------------------------------------------------------| 
-------------------------------------------------------| 
-------------------------------------------------------| 
-------------------------------------------------------| 
-------------------------------------------------------| 
12-0-000-0-0-000-0-0-000-11-11-12----------------------| 

-------------------------------------------------------| 
-------------------------------------------------------| 
-------------------------------------------------------| 
-------------------------------------------------------| 
1212-1212-12--9-9--9-9--9------------------------------| 
9-9--9-9--9---5-5--5-5--5------------------------------| 

-------------------------------------------------------| 
-------------------------------------------------------| 
-------------------------------------------------------| 
-------------------------------------------------------| 
-------------------------------------------------------| 
0--0--000---000-0-000-000------------------------------| 

Breakdown 2 

-------------------------------------------------------| 
-------------------------------------------------------| 
-------------------------------------------------------| 
-------------------------------------------------------| 
0--0--000---000-0-000-000------------------------------| 
0--0--000---000-0-000-000------------------------------| 

-------------------------------------------------------| 
-------------------------------------------------------| 
-------------------------------------------------------| 
-------------------------------------------------------| 
0--0--000---000-0-000-000-5/0--------------------------| 
0--0--000---000-0-000-000-5/0--------------------------| 

-------------------------------------------------------| 
-------------------------------------------------------| 
-------------------------------------------------------| 
-------------------------------------------------------| 
0--0--000---000-0-000-000-4/5--------------------------| 
0--0--000---000-0-000-000------------------------------| 

-------------------------------------------------------| 
-------------------------------------------------------| 
-------------------------------------------------------| 
-------------------------------------------------------| 
0--0--000---000-0-000-000-4/5-5-----12--9--------------| 
0--0--000---000-0-000-000-----5-----9---5--------------| 

Chorus 2 x2 

-------------------------------------------------------| 
-------------------------------------------------------| 
-------------------------------------------------------| 
-------------------------------------------------------| 
12121212121212121212--9-9-9-9-9-9-9-9-9-9--------------| 
9-9-9-9-9-9-9-9-9-9---5-5-5-5-5-5-5-5-5-5--------------| 

-------------------------------------------------------| 
-------------------------------------------------------| 
-------------------------------------------------------| 
-------------------------------------------------------| 
-------------------------------------------------------| 
12/-0000000--0000-0-0--12/-0000000--0000-0-0-----------| 

Pre-breakdown 

-------------------------------------------------------| 
-------------------------------------------------------| 
-------------------------------------------------------| 
-------------------------------------------------------| 
-------------------------------------------------------| 
5-0-000-000-000-000-0-0--5-0-000-000-000-000-x---------| 

Breakdown 3 

----------------------------------------------------------| 
----------------------------------------------------------| 
----------------------------------------------------------| 
----------------------------------------------------------| 
----------------------------------------------------------| 
5-0--0-0--0-0--0-0--000-0-0--5-0--0-0--0-0--0-0--000-0-0--| 

----------------------------------------------------------| 
----------------------------------------------------------| 
----------------------------------------------------------| 
----------------------------------------------------------| 
000--000--000--000-----000--000--000--000---------9/7-0-0-| 
000--000--000--000-----000--000--000--000--000-0-0----0-0-| 
		  

See also:

tabs Chickenfoot - No Change tabs Chickenfoot - Last Temptation tabs Kylesa - Unknown Awareness tabs Kylesa - To Walk Alone tabs Chickenfoot - Dubai Blues
e-chords

Other versions:

tabs Beyoncé - Speechless tabs Fenix TX - Speechless tabs The Veronicas - Speechless tabs Michael Jackson - Speechless tabs Paul Blake - Speechless (instrumental) tabs Fenix TX - Speechless (ver. 2)
auto scroll beats size up size down change color hide chords drawings
tab show chords e-chords YouTube Clip e-chords hide all tabs e-chords go to top tab

share