Aaron Shust

home > Aaron Shust

My Savior My God Tab

Aaron Shust

Difficulty: BeginnerBeginner

by kongie

tuner correct add songbook print version text version save to e-mail
chordsukulelecavacokeyboardtabbassdrumsharmonicsflute Guitar Pro
chords

My Savior My God

Year: 2005 - Album: Anything Worth Saying

  		
  
Standard Tunning (EADGbe) 
 
Intro 2x 
|-----------------------------3-----------------3----------------3-----------------------------------------------------------------------------------------------------| 
|--------------------------------0--000---------0--000-------------------------------------2------------------2--------------2---333-3h2-22-2h00---| 
|--------------------------------0--000---------0--000-----------------------------------------0--000--------0--000-----------000-000-00-000---| 
|--444-4h2-22-2h0-----0--000---------0--000-----------444-4h2-22-2h0-----0--000--------0--000---------------------------------------| 
|--000-000-00-000-----3--333---------3--333-----------000-000-00-000-----3--333--------3--333---------------------------------------| 
|----xxxxxxxxxxxxxxxxxxxxxxxxxxxxxxxxxxxxxxxxxxxxxxxxxxxxxxxxxxxxxxxxxxxxxxxxxxxxxxxxxxxxxxxxxxxxxxxxxxx| 
    The high "E" isn't used in the song...i think it sounds better 
 
 
|-------------------------------------------------------------------------------| 
|-----0----------------0------------------------------------------------------| 
|---------0--000----------0--000----------------------------------------| 
|---------2--222----------2--222------------444-2-22-2-0--------| 
|---------3--333----------3--333------------000-0-00-0-0--------| 
|--xxxxxxxxxxxxxxxxxxxxxxxxxxxxxxxxxxxxxxxxxxxxxx| 
 
verses 4x 
 
|--3----------------3------------------3----------------3------------------0----------------0------------------0----------------0----------------| 
|------2--222--------2--222----------2--222--------2--222----------2--222--------2--222----------2--222--------2--222----| 
|------0--000--------0--000----------0--000--------0--000----------2--222--------2--222----------2--222--------2--222----| 
|------0--000--------0--000----------0--000--------0--000----------0--000--------0--000----------0--000--------0--000----| 
|------3--333--------3--333----------3--333--------3--333----------3--333--------3--333----------3--333--------3--333----| 
|--xxxxxxxxxxxxxxxxxxxxxxxxxxxxxxxxxxxxxxxxxxxxxxxxxxxxxxxxxxxxxxxxxxxxxxxxxxxxxxxxxxxxxxxxxx| 
 
|--2----------------2------------------2----------------2------------------3----------------3------------------3----------------3----------------| 
|------0--000--------0--000----------0--000--------0--000----------2--222--------2--222----------2--222--------2--222----| 
|------0--000--------0--000----------0--000--------0--000----------0--000--------0--000----------0--000--------0--000----| 
|------2--222--------2--222----------2--222--------2--222----------0--000--------0--000----------0--000--------0--000----| 
|------3--333--------3--333----------3--333--------3--333----------3--333--------3--333----------3--333--------3--333----| 
|--xxxxxxxxxxxxxxxxxxxxxxxxxxxxxxxxxxxxxxxxxxxxxxxxxxxxxxxxxxxxxxxxxxxxxxxxxxxxxxxxxxxxxxxxxx| 
 
preChorus 2x 
 
|------------------------------------------------------------------------------3----------------3------------------3----------------3------------------| 
|------3----------------3----------------3----------------3----------------------2--222--------2--222----------2--222--------2--222----| 
|----------2--222--------2--222--------2--222--------2--222----------0--000--------0--000----------0--000--------0--000----| 
|----------0--000--------0--000--------0--000--------0--000----------0--000--------0--000----------0--000--------0--000----| 
|----------3--333--------3--333--------3--333--------3--333----------3--333--------3--333----------3--333--------3--333----| 
|--xxxxxxxxxxxxxxxxxxxxxxxxxxxxxxxxxxxxxxxxxxxxxxxxxxxxxxxxxxxxxxxxxxxxxxxxxxxxxxxxxxxxxxxxxxx| 
 
|--2----------------2------------------2----------------2------------------3----------------3------------------3----------------3----------------| 
|------0--000--------0--000----------0--000--------0--000----------2--222--------2--222----------2--222--------2--222----| 
|------0--000--------0--000----------0--000--------0--000----------0--000--------0--000----------0--000--------0--000----| 
|------2--222--------2--222----------2--222--------2--222----------0--000--------0--000----------0--000--------0--000----| 
|------3--333--------3--333----------3--333--------3--333----------3--333--------3--333----------3--333--------3--333----| 
|--xxxxxxxxxxxxxxxxxxxxxxxxxxxxxxxxxxxxxxxxxxxxxxxxxxxxxxxxxxxxxxxxxxxxxxxxxxxxxxxxxxxxxxxxxx| 
 
Chorus 3x 
 
|------------------------------------------3---3--33-----2---2--22-----------------------------------------3---3--33-----2---2--22--|   
|------2---2--22-----3---3--33-----2---2--22-----0---0--00-----2---2--22-----3---3--33-----2---2--22-----0---0--00--| 
|------2---2--22-----2---2--22-----0---0--00-----0---0--00-----2---2--22-----2---2--22-----0---0--00-----0---0--00--|  
|------0---0--00-----0---0--00-----0---0--00-----2---2--22-----0---0--00-----0---0--00-----0---0--00-----2---2--22--|  
|------3---3--33-----3---3--33-----3---3--33-----3---3--33-----3---3--33-----3---3--33-----3---3--33-----3---3--33--| 
|--xxxxxxxxxxxxxxxxxxxxxxxxxxxxxxxxxxxxxxxxxxxxxxxxxxxxxxxxxxxxxxxxxxxxxxxxxxxxxxxxxxxxxxx|  
 
Order 
 
intro 
verse 1 
verse 2 
preChorus 
Chorus 
verse 3 
verse 4 
preChorus 
Chorus 
intro  
Chorus (play softly) 
 
 
 
 
 
 
 
 
 
 

	  

Search Paypal
auto scroll beats size up size down change color hide chords drawings
tab show chords e-chords YouTube Clip e-chords hide all tabs e-chords go to top tab